ISO-10303-21;
HEADER;
FILE_DESCRIPTION(('STEP AP203'),'1');
FILE_NAME('590-LMF0908.stp','2016-12-28T10:47:40',(' '),(' '),'Spatial InterOp 3D',' ',' ');
FILE_SCHEMA(('CONFIG_CONTROL_DESIGN'));
ENDSEC;
DATA;
#1=DESIGN_CONTEXT('',#51,'design');
#2=APPLICATION_PROTOCOL_DEFINITION('INTERNATIONAL STANDARD','config_control_design',1994,#51);
#3=PRODUCT_CATEGORY_RELATIONSHIP('NONE','NONE',#52,#53);
#4=DATE_AND_TIME(#54,#55);
#5=DATE_TIME_ROLE('creation_date');
#6=DATE_TIME_ROLE('classification_date');
#7=PERSON_AND_ORGANIZATION_ROLE('creator');
#8=PERSON_AND_ORGANIZATION_ROLE('design_supplier');
#9=PERSON_AND_ORGANIZATION_ROLE('classification_officer');
#10=PERSON_AND_ORGANIZATION_ROLE('design_owner');
#11=APPROVAL_PERSON_ORGANIZATION(#56,#57,#58);
#12=APPROVAL_DATE_TIME(#4,#57);
#13=CC_DESIGN_APPROVAL(#57,(#59,#60,#61));
#14=CC_DESIGN_DATE_AND_TIME_ASSIGNMENT(#4,#5,(#61));
#15=CC_DESIGN_DATE_AND_TIME_ASSIGNMENT(#4,#6,(#59));
#16=CC_DESIGN_PERSON_AND_ORGANIZATION_ASSIGNMENT(#56,#10,(#62));
#17=CC_DESIGN_PERSON_AND_ORGANIZATION_ASSIGNMENT(#56,#7,(#61));
#18=CC_DESIGN_PERSON_AND_ORGANIZATION_ASSIGNMENT(#56,#7,(#60));
#19=CC_DESIGN_PERSON_AND_ORGANIZATION_ASSIGNMENT(#56,#8,(#60));
#20=CC_DESIGN_SECURITY_CLASSIFICATION(#59,(#60));
#21=CC_DESIGN_PERSON_AND_ORGANIZATION_ASSIGNMENT(#56,#9,(#59));
#22=SHAPE_DEFINITION_REPRESENTATION(#63,#64);
#23=DESIGN_CONTEXT('',#65,'design');
#24=APPLICATION_PROTOCOL_DEFINITION('INTERNATIONAL STANDARD','config_control_design',1994,#65);
#25=PRODUCT_CATEGORY_RELATIONSHIP('NONE','NONE',#66,#67);
#26=DATE_AND_TIME(#68,#69);
#27=DATE_TIME_ROLE('creation_date');
#28=DATE_TIME_ROLE('classification_date');
#29=PERSON_AND_ORGANIZATION_ROLE('creator');
#30=PERSON_AND_ORGANIZATION_ROLE('design_supplier');
#31=PERSON_AND_ORGANIZATION_ROLE('classification_officer');
#32=PERSON_AND_ORGANIZATION_ROLE('design_owner');
#33=APPROVAL_PERSON_ORGANIZATION(#70,#71,#72);
#34=APPROVAL_DATE_TIME(#26,#71);
#35=CC_DESIGN_APPROVAL(#71,(#73,#74,#75));
#36=CC_DESIGN_DATE_AND_TIME_ASSIGNMENT(#26,#27,(#75));
#37=CC_DESIGN_DATE_AND_TIME_ASSIGNMENT(#26,#28,(#73));
#38=CC_DESIGN_PERSON_AND_ORGANIZATION_ASSIGNMENT(#70,#32,(#76));
#39=CC_DESIGN_PERSON_AND_ORGANIZATION_ASSIGNMENT(#70,#29,(#75));
#40=CC_DESIGN_PERSON_AND_ORGANIZATION_ASSIGNMENT(#70,#29,(#74));
#41=CC_DESIGN_PERSON_AND_ORGANIZATION_ASSIGNMENT(#70,#30,(#74));
#42=CC_DESIGN_SECURITY_CLASSIFICATION(#73,(#74));
#43=CC_DESIGN_PERSON_AND_ORGANIZATION_ASSIGNMENT(#70,#31,(#73));
#44=CONTEXT_DEPENDENT_SHAPE_REPRESENTATION(#77,#78);
#45=SHAPE_DEFINITION_REPRESENTATION(#79,#80);
#46=SHAPE_REPRESENTATION_RELATIONSHIP('NONE','NONE',#80,#81);
#47= (GEOMETRIC_REPRESENTATION_CONTEXT(3)GLOBAL_UNCERTAINTY_ASSIGNED_CONTEXT((#84))GLOBAL_UNIT_ASSIGNED_CONTEXT((#86,#87,#88))REPRESENTATION_CONTEXT('NONE','WORKSPACE'));
#51=APPLICATION_CONTEXT('CONFIGURATION CONTROLLED 3D DESIGNS OF MECHANICAL PARTS AND ASSEMBLIES');
#52=PRODUCT_CATEGORY('part','NONE');
#53=PRODUCT_RELATED_PRODUCT_CATEGORY('detail',' ',(#62));
#54=CALENDAR_DATE(2016,28,11);
#55=LOCAL_TIME(11,47,40.0,#90);
#56=PERSON_AND_ORGANIZATION(#91,#92);
#57=APPROVAL(#93,'SOLID MODEL');
#58=APPROVAL_ROLE('APPROVED');
#59=SECURITY_CLASSIFICATION('','',#94);
#60=PRODUCT_DEFINITION_FORMATION_WITH_SPECIFIED_SOURCE(' ','NONE',#62,.NOT_KNOWN.);
#61=PRODUCT_DEFINITION('NONE','NONE',#60,#1);
#62=PRODUCT('','','PART--DESC',(#95));
#63=PRODUCT_DEFINITION_SHAPE('NONE','NONE',#61);
#64=SHAPE_REPRESENTATION('',(#96,#97),#98);
#65=APPLICATION_CONTEXT('CONFIGURATION CONTROLLED 3D DESIGNS OF MECHANICAL PARTS AND ASSEMBLIES');
#66=PRODUCT_CATEGORY('part','NONE');
#67=PRODUCT_RELATED_PRODUCT_CATEGORY('detail',' ',(#76));
#68=CALENDAR_DATE(2016,28,11);
#69=LOCAL_TIME(11,47,40.0,#99);
#70=PERSON_AND_ORGANIZATION(#100,#101);
#71=APPROVAL(#102,'SOLID MODEL');
#72=APPROVAL_ROLE('APPROVED');
#73=SECURITY_CLASSIFICATION('','',#103);
#74=PRODUCT_DEFINITION_FORMATION_WITH_SPECIFIED_SOURCE(' ','NONE',#76,.NOT_KNOWN.);
#75=PRODUCT_DEFINITION('590-LMF09x08','590-LMF09x08',#74,#23);
#76=PRODUCT('590-LMF09x08','590-LMF09x08','PART-590-LMF09x08-DESC',(#104));
#77=(REPRESENTATION_RELATIONSHIP('','',#80,#64)REPRESENTATION_RELATIONSHIP_WITH_TRANSFORMATION(#107)SHAPE_REPRESENTATION_RELATIONSHIP());
#78=PRODUCT_DEFINITION_SHAPE('NAUO-PROD-DEF','NAUO-PROD-DEF',#109);
#79=PRODUCT_DEFINITION_SHAPE('NONE','NONE',#75);
#80=SHAPE_REPRESENTATION('590-LMF09x08',(#96),#98);
#81=ADVANCED_BREP_SHAPE_REPRESENTATION('',(#110),#47);
#84=UNCERTAINTY_MEASURE_WITH_UNIT(LENGTH_MEASURE(1.0E-006),#86,'','');
#86= (CONVERSION_BASED_UNIT('METRE',#113)LENGTH_UNIT()NAMED_UNIT(#116));
#87= (NAMED_UNIT(#118)PLANE_ANGLE_UNIT()SI_UNIT($,.RADIAN.));
#88= (NAMED_UNIT(#118)SOLID_ANGLE_UNIT()SI_UNIT($,.STERADIAN.));
#90=COORDINATED_UNIVERSAL_TIME_OFFSET(1,0,.AHEAD.);
#91=PERSON('','UNSPECIFIED',$,$,$,$);
#92=ORGANIZATION('UNSPECIFIED','UNSPECIFIED','UNSPECIFIED');
#93=APPROVAL_STATUS('approved');
#94=SECURITY_CLASSIFICATION_LEVEL('unclassified');
#95=MECHANICAL_CONTEXT('',#51,'mechanical');
#96=AXIS2_PLACEMENT_3D('',#124,#125,#126);
#97=AXIS2_PLACEMENT_3D('',#127,#128,#129);
#98= (GEOMETRIC_REPRESENTATION_CONTEXT(3)GLOBAL_UNCERTAINTY_ASSIGNED_CONTEXT((#132))GLOBAL_UNIT_ASSIGNED_CONTEXT((#134,#135,#136))REPRESENTATION_CONTEXT('NONE','WORKSPACE'));
#99=COORDINATED_UNIVERSAL_TIME_OFFSET(1,0,.AHEAD.);
#100=PERSON('','UNSPECIFIED',$,$,$,$);
#101=ORGANIZATION('UNSPECIFIED','UNSPECIFIED','UNSPECIFIED');
#102=APPROVAL_STATUS('approved');
#103=SECURITY_CLASSIFICATION_LEVEL('unclassified');
#104=MECHANICAL_CONTEXT('',#65,'mechanical');
#107=ITEM_DEFINED_TRANSFORMATION('','',#96,#97);
#109=NEXT_ASSEMBLY_USAGE_OCCURRENCE('590-LMF09x08','590-LMF09x08','590-LMF09x08',#61,#75,$);
#110=MANIFOLD_SOLID_BREP('',#138);
#113=LENGTH_MEASURE_WITH_UNIT(LENGTH_MEASURE(1.0),#139);
#116=DIMENSIONAL_EXPONENTS(1.0,0.0,0.0,0.0,0.0,0.0,0.0);
#118=DIMENSIONAL_EXPONENTS(0.0,0.0,0.0,0.0,0.0,0.0,0.0);
#124=CARTESIAN_POINT('',(0.0,0.0,0.0));
#125=DIRECTION('',(0.0,0.0,1.0));
#126=DIRECTION('',(1.0,0.0,0.0));
#127=CARTESIAN_POINT('',(0.0,0.0,0.0));
#128=DIRECTION('',(5.48707263966374E-016,-5.48707263966374E-016,1.0));
#129=DIRECTION('',(-1.60812264967663E-016,1.0,5.48707263966374E-016));
#132=UNCERTAINTY_MEASURE_WITH_UNIT(LENGTH_MEASURE(1.0E-006),#134,'','');
#134= (CONVERSION_BASED_UNIT('METRE',#142)LENGTH_UNIT()NAMED_UNIT(#145));
#135= (NAMED_UNIT(#147)PLANE_ANGLE_UNIT()SI_UNIT($,.RADIAN.));
#136= (NAMED_UNIT(#147)SOLID_ANGLE_UNIT()SI_UNIT($,.STERADIAN.));
#138=CLOSED_SHELL('',(#153,#154,#155,#156,#157,#158,#159,#160,#161,#162,#163));
#139= (NAMED_UNIT(#116)LENGTH_UNIT()SI_UNIT($,.METRE.));
#142=LENGTH_MEASURE_WITH_UNIT(LENGTH_MEASURE(1.0),#165);
#145=DIMENSIONAL_EXPONENTS(1.0,0.0,0.0,0.0,0.0,0.0,0.0);
#147=DIMENSIONAL_EXPONENTS(0.0,0.0,0.0,0.0,0.0,0.0,0.0);
#153=ADVANCED_FACE('',(#166,#167),#168,.F.);
#154=ADVANCED_FACE('',(#169,#170),#171,.F.);
#155=ADVANCED_FACE('',(#172,#173),#174,.T.);
#156=ADVANCED_FACE('',(#175,#176),#177,.F.);
#157=ADVANCED_FACE('',(#178,#179),#180,.T.);
#158=ADVANCED_FACE('',(#181,#182),#183,.T.);
#159=ADVANCED_FACE('',(#184,#185),#186,.T.);
#160=ADVANCED_FACE('',(#187,#188),#189,.T.);
#161=ADVANCED_FACE('',(#190,#191),#192,.T.);
#162=ADVANCED_FACE('',(#193,#194),#195,.T.);
#163=ADVANCED_FACE('',(#196,#197),#198,.T.);
#165= (NAMED_UNIT(#145)LENGTH_UNIT()SI_UNIT($,.METRE.));
#166=FACE_BOUND('',#200,.T.);
#167=FACE_OUTER_BOUND('',#201,.T.);
#168=CONICAL_SURFACE('',#202,0.0048,0.785398163397443);
#169=FACE_OUTER_BOUND('',#203,.T.);
#170=FACE_OUTER_BOUND('',#204,.T.);
#171=CYLINDRICAL_SURFACE('',#205,0.0045);
#172=FACE_BOUND('',#206,.T.);
#173=FACE_OUTER_BOUND('',#207,.T.);
#174=PLANE('',#208);
#175=FACE_OUTER_BOUND('',#209,.T.);
#176=FACE_BOUND('',#210,.T.);
#177=CONICAL_SURFACE('',#211,0.0045,0.78539816339744);
#178=FACE_OUTER_BOUND('',#212,.T.);
#179=FACE_BOUND('',#213,.T.);
#180=PLANE('',#214);
#181=FACE_OUTER_BOUND('',#215,.T.);
#182=FACE_BOUND('',#216,.T.);
#183=CONICAL_SURFACE('',#217,0.0067,0.785398163397439);
#184=FACE_OUTER_BOUND('',#218,.T.);
#185=FACE_OUTER_BOUND('',#219,.T.);
#186=CYLINDRICAL_SURFACE('',#220,0.007);
#187=FACE_OUTER_BOUND('',#221,.T.);
#188=FACE_BOUND('',#222,.T.);
#189=PLANE('',#223);
#190=FACE_OUTER_BOUND('',#224,.T.);
#191=FACE_BOUND('',#225,.T.);
#192=CONICAL_SURFACE('',#226,0.0087,0.785398163397466);
#193=FACE_OUTER_BOUND('',#227,.T.);
#194=FACE_OUTER_BOUND('',#228,.T.);
#195=CYLINDRICAL_SURFACE('',#229,0.009);
#196=FACE_BOUND('',#230,.T.);
#197=FACE_OUTER_BOUND('',#231,.T.);
#198=CONICAL_SURFACE('',#232,0.009,0.785398163397462);
#200=EDGE_LOOP('',(#233));
#201=EDGE_LOOP('',(#234));
#202=AXIS2_PLACEMENT_3D('',#235,#236,#237);
#203=EDGE_LOOP('',(#238));
#204=EDGE_LOOP('',(#239));
#205=AXIS2_PLACEMENT_3D('',#240,#241,#242);
#206=EDGE_LOOP('',(#243));
#207=EDGE_LOOP('',(#244));
#208=AXIS2_PLACEMENT_3D('',#245,#246,#247);
#209=EDGE_LOOP('',(#248));
#210=EDGE_LOOP('',(#249));
#211=AXIS2_PLACEMENT_3D('',#250,#251,#252);
#212=EDGE_LOOP('',(#253));
#213=EDGE_LOOP('',(#254));
#214=AXIS2_PLACEMENT_3D('',#255,#256,#257);
#215=EDGE_LOOP('',(#258));
#216=EDGE_LOOP('',(#259));
#217=AXIS2_PLACEMENT_3D('',#260,#261,#262);
#218=EDGE_LOOP('',(#263));
#219=EDGE_LOOP('',(#264));
#220=AXIS2_PLACEMENT_3D('',#265,#266,#267);
#221=EDGE_LOOP('',(#268));
#222=EDGE_LOOP('',(#269));
#223=AXIS2_PLACEMENT_3D('',#270,#271,#272);
#224=EDGE_LOOP('',(#273));
#225=EDGE_LOOP('',(#274));
#226=AXIS2_PLACEMENT_3D('',#275,#276,#277);
#227=EDGE_LOOP('',(#278));
#228=EDGE_LOOP('',(#279));
#229=AXIS2_PLACEMENT_3D('',#280,#281,#282);
#230=EDGE_LOOP('',(#283));
#231=EDGE_LOOP('',(#284));
#232=AXIS2_PLACEMENT_3D('',#285,#286,#287);
#233=ORIENTED_EDGE('',*,*,#288,.T.);
#234=ORIENTED_EDGE('',*,*,#289,.F.);
#235=CARTESIAN_POINT('',(0.0,0.0,0.008));
#236=DIRECTION('',(-0.0,6.12323399573677E-017,1.0));
#237=DIRECTION('',(0.0,-1.0,6.12323399573677E-017));
#238=ORIENTED_EDGE('',*,*,#290,.T.);
#239=ORIENTED_EDGE('',*,*,#288,.F.);
#240=CARTESIAN_POINT('',(0.0,0.0,1.0842021724855E-019));
#241=DIRECTION('',(0.0,-6.12323399573677E-017,-1.0));
#242=DIRECTION('',(0.0,1.0,-6.12323399573677E-017));
#243=ORIENTED_EDGE('',*,*,#289,.T.);
#244=ORIENTED_EDGE('',*,*,#291,.F.);
#245=CARTESIAN_POINT('',(0.0087,0.0,0.008));
#246=DIRECTION('',(0.0,6.12323399573677E-017,1.0));
#247=DIRECTION('',(0.0,-1.0,6.12323399573677E-017));
#248=ORIENTED_EDGE('',*,*,#292,.T.);
#249=ORIENTED_EDGE('',*,*,#290,.F.);
#250=CARTESIAN_POINT('',(0.0,0.0,0.0003));
#251=DIRECTION('',(0.0,-6.12323399573677E-017,-1.0));
#252=DIRECTION('',(0.0,1.0,-6.12323399573677E-017));
#253=ORIENTED_EDGE('',*,*,#293,.T.);
#254=ORIENTED_EDGE('',*,*,#292,.F.);
#255=CARTESIAN_POINT('',(0.0048,0.0,1.0842021724855E-019));
#256=DIRECTION('',(0.0,-6.12323399573677E-017,-1.0));
#257=DIRECTION('',(0.0,1.0,-6.12323399573677E-017));
#258=ORIENTED_EDGE('',*,*,#294,.T.);
#259=ORIENTED_EDGE('',*,*,#293,.F.);
#260=CARTESIAN_POINT('',(0.0,0.0,1.0842021724855E-019));
#261=DIRECTION('',(-0.0,6.12323399573677E-017,1.0));
#262=DIRECTION('',(0.0,-1.0,6.12323399573677E-017));
#263=ORIENTED_EDGE('',*,*,#295,.T.);
#264=ORIENTED_EDGE('',*,*,#294,.F.);
#265=CARTESIAN_POINT('',(0.0,0.0,1.0842021724855E-019));
#266=DIRECTION('',(0.0,-6.12323399573677E-017,-1.0));
#267=DIRECTION('',(0.0,1.0,-6.12323399573677E-017));
#268=ORIENTED_EDGE('',*,*,#296,.T.);
#269=ORIENTED_EDGE('',*,*,#295,.F.);
#270=CARTESIAN_POINT('',(0.007,0.0,0.005));
#271=DIRECTION('',(0.0,-6.12323399573677E-017,-1.0));
#272=DIRECTION('',(0.0,1.0,-6.12323399573677E-017));
#273=ORIENTED_EDGE('',*,*,#297,.T.);
#274=ORIENTED_EDGE('',*,*,#296,.F.);
#275=CARTESIAN_POINT('',(0.0,0.0,0.005));
#276=DIRECTION('',(-0.0,6.12323399573677E-017,1.0));
#277=DIRECTION('',(0.0,-1.0,6.12323399573677E-017));
#278=ORIENTED_EDGE('',*,*,#298,.T.);
#279=ORIENTED_EDGE('',*,*,#297,.F.);
#280=CARTESIAN_POINT('',(0.0,0.0,1.0842021724855E-019));
#281=DIRECTION('',(0.0,-6.12323399573677E-017,-1.0));
#282=DIRECTION('',(0.0,1.0,-6.12323399573677E-017));
#283=ORIENTED_EDGE('',*,*,#291,.T.);
#284=ORIENTED_EDGE('',*,*,#298,.F.);
#285=CARTESIAN_POINT('',(0.0,0.0,0.0077));
#286=DIRECTION('',(0.0,-6.12323399573677E-017,-1.0));
#287=DIRECTION('',(0.0,1.0,-6.12323399573677E-017));
#288=EDGE_CURVE('',#299,#299,#300,.T.);
#289=EDGE_CURVE('',#301,#301,#302,.T.);
#290=EDGE_CURVE('',#303,#303,#304,.T.);
#291=EDGE_CURVE('',#305,#305,#306,.T.);
#292=EDGE_CURVE('',#307,#307,#308,.T.);
#293=EDGE_CURVE('',#309,#309,#310,.T.);
#294=EDGE_CURVE('',#311,#311,#312,.T.);
#295=EDGE_CURVE('',#313,#313,#314,.T.);
#296=EDGE_CURVE('',#315,#315,#316,.T.);
#297=EDGE_CURVE('',#317,#317,#318,.T.);
#298=EDGE_CURVE('',#319,#319,#320,.T.);
#299=VERTEX_POINT('',#321);
#300=CIRCLE('',#322,0.0045);
#301=VERTEX_POINT('',#323);
#302=CIRCLE('',#324,0.0048);
#303=VERTEX_POINT('',#325);
#304=CIRCLE('',#326,0.0045);
#305=VERTEX_POINT('',#327);
#306=CIRCLE('',#328,0.0087);
#307=VERTEX_POINT('',#329);
#308=CIRCLE('',#330,0.0048);
#309=VERTEX_POINT('',#331);
#310=CIRCLE('',#332,0.0067);
#311=VERTEX_POINT('',#333);
#312=CIRCLE('',#334,0.007);
#313=VERTEX_POINT('',#335);
#314=CIRCLE('',#336,0.007);
#315=VERTEX_POINT('',#337);
#316=CIRCLE('',#338,0.0087);
#317=VERTEX_POINT('',#339);
#318=CIRCLE('',#340,0.009);
#319=VERTEX_POINT('',#341);
#320=CIRCLE('',#342,0.009);
#321=CARTESIAN_POINT('',(0.0045,0.0,0.0077));
#322=AXIS2_PLACEMENT_3D('',#343,#344,#345);
#323=CARTESIAN_POINT('',(0.0048,0.0,0.008));
#324=AXIS2_PLACEMENT_3D('',#346,#347,#348);
#325=CARTESIAN_POINT('',(0.0045,0.0,0.0003));
#326=AXIS2_PLACEMENT_3D('',#349,#350,#351);
#327=CARTESIAN_POINT('',(0.0087,0.0,0.008));
#328=AXIS2_PLACEMENT_3D('',#352,#353,#354);
#329=CARTESIAN_POINT('',(0.0048,0.0,1.0842021724855E-019));
#330=AXIS2_PLACEMENT_3D('',#355,#356,#357);
#331=CARTESIAN_POINT('',(0.0067,0.0,1.0842021724855E-019));
#332=AXIS2_PLACEMENT_3D('',#358,#359,#360);
#333=CARTESIAN_POINT('',(0.007,0.0,0.0003));
#334=AXIS2_PLACEMENT_3D('',#361,#362,#363);
#335=CARTESIAN_POINT('',(0.007,0.0,0.005));
#336=AXIS2_PLACEMENT_3D('',#364,#365,#366);
#337=CARTESIAN_POINT('',(0.0087,0.0,0.005));
#338=AXIS2_PLACEMENT_3D('',#367,#368,#369);
#339=CARTESIAN_POINT('',(0.009,0.0,0.0053));
#340=AXIS2_PLACEMENT_3D('',#370,#371,#372);
#341=CARTESIAN_POINT('',(0.009,0.0,0.0077));
#342=AXIS2_PLACEMENT_3D('',#373,#374,#375);
#343=CARTESIAN_POINT('',(0.0,0.0,0.0077));
#344=DIRECTION('',(0.0,-6.12323399573677E-017,-1.0));
#345=DIRECTION('',(0.0,1.0,-6.12323399573677E-017));
#346=CARTESIAN_POINT('',(0.0,0.0,0.008));
#347=DIRECTION('',(0.0,-6.12323399573677E-017,-1.0));
#348=DIRECTION('',(0.0,1.0,-6.12323399573677E-017));
#349=CARTESIAN_POINT('',(0.0,0.0,0.0003));
#350=DIRECTION('',(0.0,-6.12323399573677E-017,-1.0));
#351=DIRECTION('',(0.0,1.0,-6.12323399573677E-017));
#352=CARTESIAN_POINT('',(0.0,0.0,0.008));
#353=DIRECTION('',(0.0,-6.12323399573677E-017,-1.0));
#354=DIRECTION('',(0.0,1.0,-6.12323399573677E-017));
#355=CARTESIAN_POINT('',(0.0,0.0,1.0842021724855E-019));
#356=DIRECTION('',(0.0,-6.12323399573677E-017,-1.0));
#357=DIRECTION('',(0.0,1.0,-6.12323399573677E-017));
#358=CARTESIAN_POINT('',(0.0,0.0,1.0842021724855E-019));
#359=DIRECTION('',(0.0,-6.12323399573677E-017,-1.0));
#360=DIRECTION('',(0.0,1.0,-6.12323399573677E-017));
#361=CARTESIAN_POINT('',(0.0,0.0,0.0003));
#362=DIRECTION('',(0.0,-6.12323399573677E-017,-1.0));
#363=DIRECTION('',(0.0,1.0,-6.12323399573677E-017));
#364=CARTESIAN_POINT('',(0.0,0.0,0.005));
#365=DIRECTION('',(0.0,-6.12323399573677E-017,-1.0));
#366=DIRECTION('',(0.0,1.0,-6.12323399573677E-017));
#367=CARTESIAN_POINT('',(0.0,0.0,0.005));
#368=DIRECTION('',(0.0,-6.12323399573677E-017,-1.0));
#369=DIRECTION('',(0.0,1.0,-6.12323399573677E-017));
#370=CARTESIAN_POINT('',(0.0,0.0,0.0053));
#371=DIRECTION('',(0.0,-6.12323399573677E-017,-1.0));
#372=DIRECTION('',(0.0,1.0,-6.12323399573677E-017));
#373=CARTESIAN_POINT('',(0.0,0.0,0.0077));
#374=DIRECTION('',(0.0,-6.12323399573677E-017,-1.0));
#375=DIRECTION('',(0.0,1.0,-6.12323399573677E-017));
ENDSEC;
END-ISO-10303-21;
