ISO-10303-21;
HEADER;
FILE_DESCRIPTION(('STEP AP203'),'1');
FILE_NAME('580-LM0612.stp','2016-12-28T10:26:39',(' '),(' '),'Spatial InterOp 3D',' ',' ');
FILE_SCHEMA(('CONFIG_CONTROL_DESIGN'));
ENDSEC;
DATA;
#1=DESIGN_CONTEXT('',#75,'design');
#2=APPLICATION_PROTOCOL_DEFINITION('INTERNATIONAL STANDARD','config_control_design',1994,#75);
#3=PRODUCT_CATEGORY_RELATIONSHIP('NONE','NONE',#76,#77);
#4=DATE_AND_TIME(#78,#79);
#5=DATE_TIME_ROLE('creation_date');
#6=DATE_TIME_ROLE('classification_date');
#7=PERSON_AND_ORGANIZATION_ROLE('creator');
#8=PERSON_AND_ORGANIZATION_ROLE('design_supplier');
#9=PERSON_AND_ORGANIZATION_ROLE('classification_officer');
#10=PERSON_AND_ORGANIZATION_ROLE('design_owner');
#11=APPROVAL_PERSON_ORGANIZATION(#80,#81,#82);
#12=APPROVAL_DATE_TIME(#4,#81);
#13=CC_DESIGN_APPROVAL(#81,(#83,#84,#85));
#14=CC_DESIGN_DATE_AND_TIME_ASSIGNMENT(#4,#5,(#85));
#15=CC_DESIGN_DATE_AND_TIME_ASSIGNMENT(#4,#6,(#83));
#16=CC_DESIGN_PERSON_AND_ORGANIZATION_ASSIGNMENT(#80,#10,(#86));
#17=CC_DESIGN_PERSON_AND_ORGANIZATION_ASSIGNMENT(#80,#7,(#85));
#18=CC_DESIGN_PERSON_AND_ORGANIZATION_ASSIGNMENT(#80,#7,(#84));
#19=CC_DESIGN_PERSON_AND_ORGANIZATION_ASSIGNMENT(#80,#8,(#84));
#20=CC_DESIGN_SECURITY_CLASSIFICATION(#83,(#84));
#21=CC_DESIGN_PERSON_AND_ORGANIZATION_ASSIGNMENT(#80,#9,(#83));
#22=SHAPE_DEFINITION_REPRESENTATION(#87,#88);
#23=DESIGN_CONTEXT('',#89,'design');
#24=APPLICATION_PROTOCOL_DEFINITION('INTERNATIONAL STANDARD','config_control_design',1994,#89);
#25=PRODUCT_CATEGORY_RELATIONSHIP('NONE','NONE',#90,#91);
#26=DATE_AND_TIME(#92,#93);
#27=DATE_TIME_ROLE('creation_date');
#28=DATE_TIME_ROLE('classification_date');
#29=PERSON_AND_ORGANIZATION_ROLE('creator');
#30=PERSON_AND_ORGANIZATION_ROLE('design_supplier');
#31=PERSON_AND_ORGANIZATION_ROLE('classification_officer');
#32=PERSON_AND_ORGANIZATION_ROLE('design_owner');
#33=APPROVAL_PERSON_ORGANIZATION(#94,#95,#96);
#34=APPROVAL_DATE_TIME(#26,#95);
#35=CC_DESIGN_APPROVAL(#95,(#97,#98,#99));
#36=CC_DESIGN_DATE_AND_TIME_ASSIGNMENT(#26,#27,(#99));
#37=CC_DESIGN_DATE_AND_TIME_ASSIGNMENT(#26,#28,(#97));
#38=CC_DESIGN_PERSON_AND_ORGANIZATION_ASSIGNMENT(#94,#32,(#100));
#39=CC_DESIGN_PERSON_AND_ORGANIZATION_ASSIGNMENT(#94,#29,(#99));
#40=CC_DESIGN_PERSON_AND_ORGANIZATION_ASSIGNMENT(#94,#29,(#98));
#41=CC_DESIGN_PERSON_AND_ORGANIZATION_ASSIGNMENT(#94,#30,(#98));
#42=CC_DESIGN_SECURITY_CLASSIFICATION(#97,(#98));
#43=CC_DESIGN_PERSON_AND_ORGANIZATION_ASSIGNMENT(#94,#31,(#97));
#44=CONTEXT_DEPENDENT_SHAPE_REPRESENTATION(#101,#102);
#45=SHAPE_DEFINITION_REPRESENTATION(#103,#104);
#46=SHAPE_REPRESENTATION_RELATIONSHIP('NONE','NONE',#104,#105);
#47=DESIGN_CONTEXT('',#106,'design');
#48=APPLICATION_PROTOCOL_DEFINITION('INTERNATIONAL STANDARD','config_control_design',1994,#106);
#49=PRODUCT_CATEGORY_RELATIONSHIP('NONE','NONE',#107,#108);
#50=DATE_AND_TIME(#109,#110);
#51=DATE_TIME_ROLE('creation_date');
#52=DATE_TIME_ROLE('classification_date');
#53=PERSON_AND_ORGANIZATION_ROLE('creator');
#54=PERSON_AND_ORGANIZATION_ROLE('design_supplier');
#55=PERSON_AND_ORGANIZATION_ROLE('classification_officer');
#56=PERSON_AND_ORGANIZATION_ROLE('design_owner');
#57=APPROVAL_PERSON_ORGANIZATION(#111,#112,#113);
#58=APPROVAL_DATE_TIME(#50,#112);
#59=CC_DESIGN_APPROVAL(#112,(#114,#115,#116));
#60=CC_DESIGN_DATE_AND_TIME_ASSIGNMENT(#50,#51,(#116));
#61=CC_DESIGN_DATE_AND_TIME_ASSIGNMENT(#50,#52,(#114));
#62=CC_DESIGN_PERSON_AND_ORGANIZATION_ASSIGNMENT(#111,#56,(#117));
#63=CC_DESIGN_PERSON_AND_ORGANIZATION_ASSIGNMENT(#111,#53,(#116));
#64=CC_DESIGN_PERSON_AND_ORGANIZATION_ASSIGNMENT(#111,#53,(#115));
#65=CC_DESIGN_PERSON_AND_ORGANIZATION_ASSIGNMENT(#111,#54,(#115));
#66=CC_DESIGN_SECURITY_CLASSIFICATION(#114,(#115));
#67=CC_DESIGN_PERSON_AND_ORGANIZATION_ASSIGNMENT(#111,#55,(#114));
#68=CONTEXT_DEPENDENT_SHAPE_REPRESENTATION(#118,#119);
#69=SHAPE_DEFINITION_REPRESENTATION(#120,#121);
#70=SHAPE_REPRESENTATION_RELATIONSHIP('NONE','NONE',#121,#122);
#71= (GEOMETRIC_REPRESENTATION_CONTEXT(3)GLOBAL_UNCERTAINTY_ASSIGNED_CONTEXT((#125))GLOBAL_UNIT_ASSIGNED_CONTEXT((#127,#128,#129))REPRESENTATION_CONTEXT('NONE','WORKSPACE'));
#75=APPLICATION_CONTEXT('CONFIGURATION CONTROLLED 3D DESIGNS OF MECHANICAL PARTS AND ASSEMBLIES');
#76=PRODUCT_CATEGORY('part','NONE');
#77=PRODUCT_RELATED_PRODUCT_CATEGORY('detail',' ',(#86));
#78=CALENDAR_DATE(2016,28,11);
#79=LOCAL_TIME(11,26,39.0,#131);
#80=PERSON_AND_ORGANIZATION(#132,#133);
#81=APPROVAL(#134,'SOLID MODEL');
#82=APPROVAL_ROLE('APPROVED');
#83=SECURITY_CLASSIFICATION('','',#135);
#84=PRODUCT_DEFINITION_FORMATION_WITH_SPECIFIED_SOURCE(' ','NONE',#86,.NOT_KNOWN.);
#85=PRODUCT_DEFINITION('NONE','NONE',#84,#1);
#86=PRODUCT('','','PART--DESC',(#136));
#87=PRODUCT_DEFINITION_SHAPE('NONE','NONE',#85);
#88=SHAPE_REPRESENTATION('',(#137,#138,#139),#140);
#89=APPLICATION_CONTEXT('CONFIGURATION CONTROLLED 3D DESIGNS OF MECHANICAL PARTS AND ASSEMBLIES');
#90=PRODUCT_CATEGORY('part','NONE');
#91=PRODUCT_RELATED_PRODUCT_CATEGORY('detail',' ',(#100));
#92=CALENDAR_DATE(2016,28,11);
#93=LOCAL_TIME(11,26,39.0,#141);
#94=PERSON_AND_ORGANIZATION(#142,#143);
#95=APPROVAL(#144,'SOLID MODEL');
#96=APPROVAL_ROLE('APPROVED');
#97=SECURITY_CLASSIFICATION('','',#145);
#98=PRODUCT_DEFINITION_FORMATION_WITH_SPECIFIED_SOURCE(' ','NONE',#100,.NOT_KNOWN.);
#99=PRODUCT_DEFINITION('580-LM06x12','580-LM06x12',#98,#23);
#100=PRODUCT('580-LM06x12','580-LM06x12','PART-580-LM06x12-DESC',(#146));
#101=(REPRESENTATION_RELATIONSHIP('','',#104,#88)REPRESENTATION_RELATIONSHIP_WITH_TRANSFORMATION(#149)SHAPE_REPRESENTATION_RELATIONSHIP());
#102=PRODUCT_DEFINITION_SHAPE('NAUO-PROD-DEF','NAUO-PROD-DEF',#151);
#103=PRODUCT_DEFINITION_SHAPE('NONE','NONE',#99);
#104=SHAPE_REPRESENTATION('580-LM06x12',(#137),#140);
#105=ADVANCED_BREP_SHAPE_REPRESENTATION('',(#152),#71);
#106=APPLICATION_CONTEXT('CONFIGURATION CONTROLLED 3D DESIGNS OF MECHANICAL PARTS AND ASSEMBLIES');
#107=PRODUCT_CATEGORY('part','NONE');
#108=PRODUCT_RELATED_PRODUCT_CATEGORY('detail',' ',(#117));
#109=CALENDAR_DATE(2016,28,11);
#110=LOCAL_TIME(11,26,39.0,#153);
#111=PERSON_AND_ORGANIZATION(#154,#155);
#112=APPROVAL(#156,'SOLID MODEL');
#113=APPROVAL_ROLE('APPROVED');
#114=SECURITY_CLASSIFICATION('','',#157);
#115=PRODUCT_DEFINITION_FORMATION_WITH_SPECIFIED_SOURCE(' ','NONE',#117,.NOT_KNOWN.);
#116=PRODUCT_DEFINITION('580-LM20x25','580-LM20x25',#115,#47);
#117=PRODUCT('580-LM20x25','580-LM20x25','PART-580-LM20x25-DESC',(#158));
#118=(REPRESENTATION_RELATIONSHIP('','',#121,#88)REPRESENTATION_RELATIONSHIP_WITH_TRANSFORMATION(#161)SHAPE_REPRESENTATION_RELATIONSHIP());
#119=PRODUCT_DEFINITION_SHAPE('NAUO-PROD-DEF','NAUO-PROD-DEF',#163);
#120=PRODUCT_DEFINITION_SHAPE('NONE','NONE',#116);
#121=SHAPE_REPRESENTATION('580-LM20x25',(#137),#140);
#122=ADVANCED_BREP_SHAPE_REPRESENTATION('',(#164),#71);
#125=UNCERTAINTY_MEASURE_WITH_UNIT(LENGTH_MEASURE(1.0E-006),#127,'','');
#127= (CONVERSION_BASED_UNIT('METRE',#167)LENGTH_UNIT()NAMED_UNIT(#170));
#128= (NAMED_UNIT(#172)PLANE_ANGLE_UNIT()SI_UNIT($,.RADIAN.));
#129= (NAMED_UNIT(#172)SOLID_ANGLE_UNIT()SI_UNIT($,.STERADIAN.));
#131=COORDINATED_UNIVERSAL_TIME_OFFSET(1,0,.AHEAD.);
#132=PERSON('','UNSPECIFIED',$,$,$,$);
#133=ORGANIZATION('UNSPECIFIED','UNSPECIFIED','UNSPECIFIED');
#134=APPROVAL_STATUS('approved');
#135=SECURITY_CLASSIFICATION_LEVEL('unclassified');
#136=MECHANICAL_CONTEXT('',#75,'mechanical');
#137=AXIS2_PLACEMENT_3D('',#178,#179,#180);
#138=AXIS2_PLACEMENT_3D('',#181,#182,#183);
#139=AXIS2_PLACEMENT_3D('',#184,#185,#186);
#140= (GEOMETRIC_REPRESENTATION_CONTEXT(3)GLOBAL_UNCERTAINTY_ASSIGNED_CONTEXT((#189))GLOBAL_UNIT_ASSIGNED_CONTEXT((#191,#192,#193))REPRESENTATION_CONTEXT('NONE','WORKSPACE'));
#141=COORDINATED_UNIVERSAL_TIME_OFFSET(1,0,.AHEAD.);
#142=PERSON('','UNSPECIFIED',$,$,$,$);
#143=ORGANIZATION('UNSPECIFIED','UNSPECIFIED','UNSPECIFIED');
#144=APPROVAL_STATUS('approved');
#145=SECURITY_CLASSIFICATION_LEVEL('unclassified');
#146=MECHANICAL_CONTEXT('',#89,'mechanical');
#149=ITEM_DEFINED_TRANSFORMATION('','',#137,#138);
#151=NEXT_ASSEMBLY_USAGE_OCCURRENCE('580-LM06x12','580-LM06x12','580-LM06x12',#85,#99,$);
#152=MANIFOLD_SOLID_BREP('',#195);
#153=COORDINATED_UNIVERSAL_TIME_OFFSET(1,0,.AHEAD.);
#154=PERSON('','UNSPECIFIED',$,$,$,$);
#155=ORGANIZATION('UNSPECIFIED','UNSPECIFIED','UNSPECIFIED');
#156=APPROVAL_STATUS('approved');
#157=SECURITY_CLASSIFICATION_LEVEL('unclassified');
#158=MECHANICAL_CONTEXT('',#106,'mechanical');
#161=ITEM_DEFINED_TRANSFORMATION('','',#137,#139);
#163=NEXT_ASSEMBLY_USAGE_OCCURRENCE('580-LM20x25','580-LM20x25','580-LM20x25',#85,#116,$);
#164=MANIFOLD_SOLID_BREP('',#196);
#167=LENGTH_MEASURE_WITH_UNIT(LENGTH_MEASURE(1.0),#197);
#170=DIMENSIONAL_EXPONENTS(1.0,0.0,0.0,0.0,0.0,0.0,0.0);
#172=DIMENSIONAL_EXPONENTS(0.0,0.0,0.0,0.0,0.0,0.0,0.0);
#178=CARTESIAN_POINT('',(0.0,0.0,0.0));
#179=DIRECTION('',(0.0,0.0,1.0));
#180=DIRECTION('',(1.0,0.0,0.0));
#181=CARTESIAN_POINT('',(0.0,0.0,0.0));
#182=DIRECTION('',(5.48707263966374E-016,-5.48707263966374E-016,1.0));
#183=DIRECTION('',(-1.60812264967663E-016,1.0,5.48707263966374E-016));
#184=CARTESIAN_POINT('',(0.0,0.0,0.0));
#185=DIRECTION('',(5.48707263966374E-016,-5.48707263966374E-016,1.0));
#186=DIRECTION('',(-1.60812264967663E-016,1.0,5.48707263966374E-016));
#189=UNCERTAINTY_MEASURE_WITH_UNIT(LENGTH_MEASURE(1.0E-006),#191,'','');
#191= (CONVERSION_BASED_UNIT('METRE',#200)LENGTH_UNIT()NAMED_UNIT(#203));
#192= (NAMED_UNIT(#205)PLANE_ANGLE_UNIT()SI_UNIT($,.RADIAN.));
#193= (NAMED_UNIT(#205)SOLID_ANGLE_UNIT()SI_UNIT($,.STERADIAN.));
#195=CLOSED_SHELL('',(#211,#212,#213,#214,#215,#216,#217,#218));
#196=CLOSED_SHELL('',(#219,#220,#221,#222,#223,#224,#225,#226));
#197= (NAMED_UNIT(#170)LENGTH_UNIT()SI_UNIT($,.METRE.));
#200=LENGTH_MEASURE_WITH_UNIT(LENGTH_MEASURE(1.0),#228);
#203=DIMENSIONAL_EXPONENTS(1.0,0.0,0.0,0.0,0.0,0.0,0.0);
#205=DIMENSIONAL_EXPONENTS(0.0,0.0,0.0,0.0,0.0,0.0,0.0);
#211=ADVANCED_FACE('',(#229,#230),#231,.F.);
#212=ADVANCED_FACE('',(#232,#233),#234,.F.);
#213=ADVANCED_FACE('',(#235,#236),#237,.F.);
#214=ADVANCED_FACE('',(#238,#239),#240,.T.);
#215=ADVANCED_FACE('',(#241,#242),#243,.T.);
#216=ADVANCED_FACE('',(#244,#245),#246,.T.);
#217=ADVANCED_FACE('',(#247,#248),#249,.T.);
#218=ADVANCED_FACE('',(#250,#251),#252,.T.);
#219=ADVANCED_FACE('',(#253,#254),#255,.F.);
#220=ADVANCED_FACE('',(#256,#257),#258,.F.);
#221=ADVANCED_FACE('',(#259,#260),#261,.F.);
#222=ADVANCED_FACE('',(#262,#263),#264,.T.);
#223=ADVANCED_FACE('',(#265,#266),#267,.T.);
#224=ADVANCED_FACE('',(#268,#269),#270,.T.);
#225=ADVANCED_FACE('',(#271,#272),#273,.T.);
#226=ADVANCED_FACE('',(#274,#275),#276,.T.);
#228= (NAMED_UNIT(#203)LENGTH_UNIT()SI_UNIT($,.METRE.));
#229=FACE_OUTER_BOUND('',#278,.T.);
#230=FACE_OUTER_BOUND('',#279,.T.);
#231=CYLINDRICAL_SURFACE('',#280,0.003);
#232=FACE_OUTER_BOUND('',#281,.T.);
#233=FACE_BOUND('',#282,.T.);
#234=CONICAL_SURFACE('',#283,0.003,0.785398163397449);
#235=FACE_BOUND('',#284,.T.);
#236=FACE_OUTER_BOUND('',#285,.T.);
#237=CONICAL_SURFACE('',#286,0.0033,0.785398163397448);
#238=FACE_OUTER_BOUND('',#287,.T.);
#239=FACE_BOUND('',#288,.T.);
#240=PLANE('',#289);
#241=FACE_OUTER_BOUND('',#290,.T.);
#242=FACE_BOUND('',#291,.T.);
#243=CONICAL_SURFACE('',#292,0.0057,0.785398163397461);
#244=FACE_OUTER_BOUND('',#293,.T.);
#245=FACE_OUTER_BOUND('',#294,.T.);
#246=CYLINDRICAL_SURFACE('',#295,0.006);
#247=FACE_BOUND('',#296,.T.);
#248=FACE_OUTER_BOUND('',#297,.T.);
#249=CONICAL_SURFACE('',#298,0.006,0.78539816339746);
#250=FACE_BOUND('',#299,.T.);
#251=FACE_OUTER_BOUND('',#300,.T.);
#252=PLANE('',#301);
#253=FACE_OUTER_BOUND('',#302,.T.);
#254=FACE_OUTER_BOUND('',#303,.T.);
#255=CYLINDRICAL_SURFACE('',#304,0.01);
#256=FACE_OUTER_BOUND('',#305,.T.);
#257=FACE_BOUND('',#306,.T.);
#258=CONICAL_SURFACE('',#307,0.01,0.785398163397462);
#259=FACE_BOUND('',#308,.T.);
#260=FACE_OUTER_BOUND('',#309,.T.);
#261=CONICAL_SURFACE('',#310,0.0105,0.785398163397448);
#262=FACE_OUTER_BOUND('',#311,.T.);
#263=FACE_BOUND('',#312,.T.);
#264=PLANE('',#313);
#265=FACE_OUTER_BOUND('',#314,.T.);
#266=FACE_BOUND('',#315,.T.);
#267=CONICAL_SURFACE('',#316,0.0135,0.785398163397449);
#268=FACE_OUTER_BOUND('',#317,.T.);
#269=FACE_OUTER_BOUND('',#318,.T.);
#270=CYLINDRICAL_SURFACE('',#319,0.014);
#271=FACE_BOUND('',#320,.T.);
#272=FACE_OUTER_BOUND('',#321,.T.);
#273=CONICAL_SURFACE('',#322,0.014,0.785398163397448);
#274=FACE_BOUND('',#323,.T.);
#275=FACE_OUTER_BOUND('',#324,.T.);
#276=PLANE('',#325);
#278=EDGE_LOOP('',(#326));
#279=EDGE_LOOP('',(#327));
#280=AXIS2_PLACEMENT_3D('',#328,#329,#330);
#281=EDGE_LOOP('',(#331));
#282=EDGE_LOOP('',(#332));
#283=AXIS2_PLACEMENT_3D('',#333,#334,#335);
#284=EDGE_LOOP('',(#336));
#285=EDGE_LOOP('',(#337));
#286=AXIS2_PLACEMENT_3D('',#338,#339,#340);
#287=EDGE_LOOP('',(#341));
#288=EDGE_LOOP('',(#342));
#289=AXIS2_PLACEMENT_3D('',#343,#344,#345);
#290=EDGE_LOOP('',(#346));
#291=EDGE_LOOP('',(#347));
#292=AXIS2_PLACEMENT_3D('',#348,#349,#350);
#293=EDGE_LOOP('',(#351));
#294=EDGE_LOOP('',(#352));
#295=AXIS2_PLACEMENT_3D('',#353,#354,#355);
#296=EDGE_LOOP('',(#356));
#297=EDGE_LOOP('',(#357));
#298=AXIS2_PLACEMENT_3D('',#358,#359,#360);
#299=EDGE_LOOP('',(#361));
#300=EDGE_LOOP('',(#362));
#301=AXIS2_PLACEMENT_3D('',#363,#364,#365);
#302=EDGE_LOOP('',(#366));
#303=EDGE_LOOP('',(#367));
#304=AXIS2_PLACEMENT_3D('',#368,#369,#370);
#305=EDGE_LOOP('',(#371));
#306=EDGE_LOOP('',(#372));
#307=AXIS2_PLACEMENT_3D('',#373,#374,#375);
#308=EDGE_LOOP('',(#376));
#309=EDGE_LOOP('',(#377));
#310=AXIS2_PLACEMENT_3D('',#378,#379,#380);
#311=EDGE_LOOP('',(#381));
#312=EDGE_LOOP('',(#382));
#313=AXIS2_PLACEMENT_3D('',#383,#384,#385);
#314=EDGE_LOOP('',(#386));
#315=EDGE_LOOP('',(#387));
#316=AXIS2_PLACEMENT_3D('',#388,#389,#390);
#317=EDGE_LOOP('',(#391));
#318=EDGE_LOOP('',(#392));
#319=AXIS2_PLACEMENT_3D('',#393,#394,#395);
#320=EDGE_LOOP('',(#396));
#321=EDGE_LOOP('',(#397));
#322=AXIS2_PLACEMENT_3D('',#398,#399,#400);
#323=EDGE_LOOP('',(#401));
#324=EDGE_LOOP('',(#402));
#325=AXIS2_PLACEMENT_3D('',#403,#404,#405);
#326=ORIENTED_EDGE('',*,*,#406,.T.);
#327=ORIENTED_EDGE('',*,*,#407,.F.);
#328=CARTESIAN_POINT('',(0.0,0.0,-1.0842021724855E-019));
#329=DIRECTION('',(0.0,-6.12323399573677E-017,-1.0));
#330=DIRECTION('',(0.0,1.0,-6.12323399573677E-017));
#331=ORIENTED_EDGE('',*,*,#408,.T.);
#332=ORIENTED_EDGE('',*,*,#406,.F.);
#333=CARTESIAN_POINT('',(0.0,0.0,0.0003));
#334=DIRECTION('',(0.0,-6.12323399573677E-017,-1.0));
#335=DIRECTION('',(0.0,1.0,-6.12323399573677E-017));
#336=ORIENTED_EDGE('',*,*,#407,.T.);
#337=ORIENTED_EDGE('',*,*,#409,.F.);
#338=CARTESIAN_POINT('',(0.0,0.0,0.012));
#339=DIRECTION('',(-0.0,6.12323399573677E-017,1.0));
#340=DIRECTION('',(0.0,-1.0,6.12323399573677E-017));
#341=ORIENTED_EDGE('',*,*,#410,.T.);
#342=ORIENTED_EDGE('',*,*,#408,.F.);
#343=CARTESIAN_POINT('',(0.0033,0.0,-1.21972744404619E-018));
#344=DIRECTION('',(0.0,-6.12323399573677E-017,-1.0));
#345=DIRECTION('',(0.0,1.0,-6.12323399573677E-017));
#346=ORIENTED_EDGE('',*,*,#411,.T.);
#347=ORIENTED_EDGE('',*,*,#410,.F.);
#348=CARTESIAN_POINT('',(0.0,0.0,-1.0842021724855E-018));
#349=DIRECTION('',(-0.0,6.12323399573677E-017,1.0));
#350=DIRECTION('',(0.0,-1.0,6.12323399573677E-017));
#351=ORIENTED_EDGE('',*,*,#412,.T.);
#352=ORIENTED_EDGE('',*,*,#411,.F.);
#353=CARTESIAN_POINT('',(0.0,0.0,-1.0842021724855E-019));
#354=DIRECTION('',(0.0,-6.12323399573677E-017,-1.0));
#355=DIRECTION('',(0.0,1.0,-6.12323399573677E-017));
#356=ORIENTED_EDGE('',*,*,#413,.T.);
#357=ORIENTED_EDGE('',*,*,#412,.F.);
#358=CARTESIAN_POINT('',(0.0,0.0,0.0117));
#359=DIRECTION('',(0.0,-6.12323399573677E-017,-1.0));
#360=DIRECTION('',(0.0,1.0,-6.12323399573677E-017));
#361=ORIENTED_EDGE('',*,*,#409,.T.);
#362=ORIENTED_EDGE('',*,*,#413,.F.);
#363=CARTESIAN_POINT('',(0.0057,0.0,0.012));
#364=DIRECTION('',(0.0,6.12323399573677E-017,1.0));
#365=DIRECTION('',(0.0,-1.0,6.12323399573677E-017));
#366=ORIENTED_EDGE('',*,*,#414,.T.);
#367=ORIENTED_EDGE('',*,*,#415,.F.);
#368=CARTESIAN_POINT('',(0.0,0.0,-1.0842021724855E-019));
#369=DIRECTION('',(0.0,-6.12323399573677E-017,-1.0));
#370=DIRECTION('',(0.0,1.0,-6.12323399573677E-017));
#371=ORIENTED_EDGE('',*,*,#416,.T.);
#372=ORIENTED_EDGE('',*,*,#414,.F.);
#373=CARTESIAN_POINT('',(0.0,0.0,0.0005));
#374=DIRECTION('',(0.0,-6.12323399573677E-017,-1.0));
#375=DIRECTION('',(0.0,1.0,-6.12323399573677E-017));
#376=ORIENTED_EDGE('',*,*,#415,.T.);
#377=ORIENTED_EDGE('',*,*,#417,.F.);
#378=CARTESIAN_POINT('',(0.0,0.0,0.025));
#379=DIRECTION('',(-0.0,6.12323399573677E-017,1.0));
#380=DIRECTION('',(0.0,-1.0,6.12323399573677E-017));
#381=ORIENTED_EDGE('',*,*,#418,.T.);
#382=ORIENTED_EDGE('',*,*,#416,.F.);
#383=CARTESIAN_POINT('',(0.0105,0.0,5.42101086242752E-020));
#384=DIRECTION('',(0.0,-6.12323399573677E-017,-1.0));
#385=DIRECTION('',(0.0,1.0,-6.12323399573677E-017));
#386=ORIENTED_EDGE('',*,*,#419,.T.);
#387=ORIENTED_EDGE('',*,*,#418,.F.);
#388=CARTESIAN_POINT('',(0.0,0.0,2.16840434497101E-019));
#389=DIRECTION('',(-0.0,6.12323399573677E-017,1.0));
#390=DIRECTION('',(0.0,-1.0,6.12323399573677E-017));
#391=ORIENTED_EDGE('',*,*,#420,.T.);
#392=ORIENTED_EDGE('',*,*,#419,.F.);
#393=CARTESIAN_POINT('',(0.0,0.0,-1.0842021724855E-019));
#394=DIRECTION('',(0.0,-6.12323399573677E-017,-1.0));
#395=DIRECTION('',(0.0,1.0,-6.12323399573677E-017));
#396=ORIENTED_EDGE('',*,*,#421,.T.);
#397=ORIENTED_EDGE('',*,*,#420,.F.);
#398=CARTESIAN_POINT('',(0.0,0.0,0.0245));
#399=DIRECTION('',(0.0,-6.12323399573677E-017,-1.0));
#400=DIRECTION('',(0.0,1.0,-6.12323399573677E-017));
#401=ORIENTED_EDGE('',*,*,#417,.T.);
#402=ORIENTED_EDGE('',*,*,#421,.F.);
#403=CARTESIAN_POINT('',(0.0135,0.0,0.025));
#404=DIRECTION('',(0.0,6.12323399573677E-017,1.0));
#405=DIRECTION('',(0.0,-1.0,6.12323399573677E-017));
#406=EDGE_CURVE('',#422,#422,#423,.T.);
#407=EDGE_CURVE('',#424,#424,#425,.T.);
#408=EDGE_CURVE('',#426,#426,#427,.T.);
#409=EDGE_CURVE('',#428,#428,#429,.T.);
#410=EDGE_CURVE('',#430,#430,#431,.T.);
#411=EDGE_CURVE('',#432,#432,#433,.T.);
#412=EDGE_CURVE('',#434,#434,#435,.T.);
#413=EDGE_CURVE('',#436,#436,#437,.T.);
#414=EDGE_CURVE('',#438,#438,#439,.T.);
#415=EDGE_CURVE('',#440,#440,#441,.T.);
#416=EDGE_CURVE('',#442,#442,#443,.T.);
#417=EDGE_CURVE('',#444,#444,#445,.T.);
#418=EDGE_CURVE('',#446,#446,#447,.T.);
#419=EDGE_CURVE('',#448,#448,#449,.T.);
#420=EDGE_CURVE('',#450,#450,#451,.T.);
#421=EDGE_CURVE('',#452,#452,#453,.T.);
#422=VERTEX_POINT('',#454);
#423=CIRCLE('',#455,0.003);
#424=VERTEX_POINT('',#456);
#425=CIRCLE('',#457,0.003);
#426=VERTEX_POINT('',#458);
#427=CIRCLE('',#459,0.0033);
#428=VERTEX_POINT('',#460);
#429=CIRCLE('',#461,0.0033);
#430=VERTEX_POINT('',#462);
#431=CIRCLE('',#463,0.0057);
#432=VERTEX_POINT('',#464);
#433=CIRCLE('',#465,0.006);
#434=VERTEX_POINT('',#466);
#435=CIRCLE('',#467,0.006);
#436=VERTEX_POINT('',#468);
#437=CIRCLE('',#469,0.0057);
#438=VERTEX_POINT('',#470);
#439=CIRCLE('',#471,0.01);
#440=VERTEX_POINT('',#472);
#441=CIRCLE('',#473,0.01);
#442=VERTEX_POINT('',#474);
#443=CIRCLE('',#475,0.0105);
#444=VERTEX_POINT('',#476);
#445=CIRCLE('',#477,0.0105);
#446=VERTEX_POINT('',#478);
#447=CIRCLE('',#479,0.0135);
#448=VERTEX_POINT('',#480);
#449=CIRCLE('',#481,0.014);
#450=VERTEX_POINT('',#482);
#451=CIRCLE('',#483,0.014);
#452=VERTEX_POINT('',#484);
#453=CIRCLE('',#485,0.0135);
#454=CARTESIAN_POINT('',(0.003,0.0,0.0003));
#455=AXIS2_PLACEMENT_3D('',#486,#487,#488);
#456=CARTESIAN_POINT('',(0.003,0.0,0.0117));
#457=AXIS2_PLACEMENT_3D('',#489,#490,#491);
#458=CARTESIAN_POINT('',(0.0033,0.0,-1.35525271560688E-018));
#459=AXIS2_PLACEMENT_3D('',#492,#493,#494);
#460=CARTESIAN_POINT('',(0.0033,0.0,0.012));
#461=AXIS2_PLACEMENT_3D('',#495,#496,#497);
#462=CARTESIAN_POINT('',(0.0057,0.0,-1.0842021724855E-018));
#463=AXIS2_PLACEMENT_3D('',#498,#499,#500);
#464=CARTESIAN_POINT('',(0.006,0.0,0.0003));
#465=AXIS2_PLACEMENT_3D('',#501,#502,#503);
#466=CARTESIAN_POINT('',(0.006,0.0,0.0117));
#467=AXIS2_PLACEMENT_3D('',#504,#505,#506);
#468=CARTESIAN_POINT('',(0.0057,0.0,0.012));
#469=AXIS2_PLACEMENT_3D('',#507,#508,#509);
#470=CARTESIAN_POINT('',(0.01,0.0,0.0005));
#471=AXIS2_PLACEMENT_3D('',#510,#511,#512);
#472=CARTESIAN_POINT('',(0.01,0.0,0.0245));
#473=AXIS2_PLACEMENT_3D('',#513,#514,#515);
#474=CARTESIAN_POINT('',(0.0105,0.0,-1.0842021724855E-019));
#475=AXIS2_PLACEMENT_3D('',#516,#517,#518);
#476=CARTESIAN_POINT('',(0.0105,0.0,0.025));
#477=AXIS2_PLACEMENT_3D('',#519,#520,#521);
#478=CARTESIAN_POINT('',(0.0135,0.0,2.16840434497101E-019));
#479=AXIS2_PLACEMENT_3D('',#522,#523,#524);
#480=CARTESIAN_POINT('',(0.014,0.0,0.0005));
#481=AXIS2_PLACEMENT_3D('',#525,#526,#527);
#482=CARTESIAN_POINT('',(0.014,0.0,0.0245));
#483=AXIS2_PLACEMENT_3D('',#528,#529,#530);
#484=CARTESIAN_POINT('',(0.0135,0.0,0.025));
#485=AXIS2_PLACEMENT_3D('',#531,#532,#533);
#486=CARTESIAN_POINT('',(0.0,0.0,0.0003));
#487=DIRECTION('',(0.0,-6.12323399573677E-017,-1.0));
#488=DIRECTION('',(0.0,1.0,-6.12323399573677E-017));
#489=CARTESIAN_POINT('',(0.0,0.0,0.0117));
#490=DIRECTION('',(0.0,-6.12323399573677E-017,-1.0));
#491=DIRECTION('',(0.0,1.0,-6.12323399573677E-017));
#492=CARTESIAN_POINT('',(0.0,0.0,-1.35525271560688E-018));
#493=DIRECTION('',(0.0,-6.12323399573677E-017,-1.0));
#494=DIRECTION('',(0.0,1.0,-6.12323399573677E-017));
#495=CARTESIAN_POINT('',(0.0,0.0,0.012));
#496=DIRECTION('',(0.0,-6.12323399573677E-017,-1.0));
#497=DIRECTION('',(0.0,1.0,-6.12323399573677E-017));
#498=CARTESIAN_POINT('',(0.0,0.0,-1.0842021724855E-018));
#499=DIRECTION('',(0.0,-6.12323399573677E-017,-1.0));
#500=DIRECTION('',(0.0,1.0,-6.12323399573677E-017));
#501=CARTESIAN_POINT('',(0.0,0.0,0.0003));
#502=DIRECTION('',(0.0,-6.12323399573677E-017,-1.0));
#503=DIRECTION('',(0.0,1.0,-6.12323399573677E-017));
#504=CARTESIAN_POINT('',(0.0,0.0,0.0117));
#505=DIRECTION('',(0.0,-6.12323399573677E-017,-1.0));
#506=DIRECTION('',(0.0,1.0,-6.12323399573677E-017));
#507=CARTESIAN_POINT('',(0.0,0.0,0.012));
#508=DIRECTION('',(0.0,-6.12323399573677E-017,-1.0));
#509=DIRECTION('',(0.0,1.0,-6.12323399573677E-017));
#510=CARTESIAN_POINT('',(0.0,0.0,0.0005));
#511=DIRECTION('',(0.0,-6.12323399573677E-017,-1.0));
#512=DIRECTION('',(0.0,1.0,-6.12323399573677E-017));
#513=CARTESIAN_POINT('',(0.0,0.0,0.0245));
#514=DIRECTION('',(0.0,-6.12323399573677E-017,-1.0));
#515=DIRECTION('',(0.0,1.0,-6.12323399573677E-017));
#516=CARTESIAN_POINT('',(0.0,0.0,-1.0842021724855E-019));
#517=DIRECTION('',(0.0,-6.12323399573677E-017,-1.0));
#518=DIRECTION('',(0.0,1.0,-6.12323399573677E-017));
#519=CARTESIAN_POINT('',(0.0,0.0,0.025));
#520=DIRECTION('',(0.0,-6.12323399573677E-017,-1.0));
#521=DIRECTION('',(0.0,1.0,-6.12323399573677E-017));
#522=CARTESIAN_POINT('',(0.0,0.0,2.16840434497101E-019));
#523=DIRECTION('',(0.0,-6.12323399573677E-017,-1.0));
#524=DIRECTION('',(0.0,1.0,-6.12323399573677E-017));
#525=CARTESIAN_POINT('',(0.0,0.0,0.0005));
#526=DIRECTION('',(0.0,-6.12323399573677E-017,-1.0));
#527=DIRECTION('',(0.0,1.0,-6.12323399573677E-017));
#528=CARTESIAN_POINT('',(0.0,0.0,0.0245));
#529=DIRECTION('',(0.0,-6.12323399573677E-017,-1.0));
#530=DIRECTION('',(0.0,1.0,-6.12323399573677E-017));
#531=CARTESIAN_POINT('',(0.0,0.0,0.025));
#532=DIRECTION('',(0.0,-6.12323399573677E-017,-1.0));
#533=DIRECTION('',(0.0,1.0,-6.12323399573677E-017));
ENDSEC;
END-ISO-10303-21;
