ISO-10303-21;
HEADER;
FILE_DESCRIPTION(('STEP AP203'),'1');
FILE_NAME('410-BM1321F10LMB.stp','2016-09-19T18:39:14',(' '),(' '),'Spatial InterOp 3D',' ',' ');
FILE_SCHEMA(('CONFIG_CONTROL_DESIGN'));
ENDSEC;
DATA;
#1=DESIGN_CONTEXT('',#51,'design');
#2=APPLICATION_PROTOCOL_DEFINITION('INTERNATIONAL STANDARD','config_control_design',1994,#51);
#3=PRODUCT_CATEGORY_RELATIONSHIP('NONE','NONE',#52,#53);
#4=DATE_AND_TIME(#54,#55);
#5=DATE_TIME_ROLE('creation_date');
#6=DATE_TIME_ROLE('classification_date');
#7=PERSON_AND_ORGANIZATION_ROLE('creator');
#8=PERSON_AND_ORGANIZATION_ROLE('design_supplier');
#9=PERSON_AND_ORGANIZATION_ROLE('classification_officer');
#10=PERSON_AND_ORGANIZATION_ROLE('design_owner');
#11=APPROVAL_PERSON_ORGANIZATION(#56,#57,#58);
#12=APPROVAL_DATE_TIME(#4,#57);
#13=CC_DESIGN_APPROVAL(#57,(#59,#60,#61));
#14=CC_DESIGN_DATE_AND_TIME_ASSIGNMENT(#4,#5,(#61));
#15=CC_DESIGN_DATE_AND_TIME_ASSIGNMENT(#4,#6,(#59));
#16=CC_DESIGN_PERSON_AND_ORGANIZATION_ASSIGNMENT(#56,#10,(#62));
#17=CC_DESIGN_PERSON_AND_ORGANIZATION_ASSIGNMENT(#56,#7,(#61));
#18=CC_DESIGN_PERSON_AND_ORGANIZATION_ASSIGNMENT(#56,#7,(#60));
#19=CC_DESIGN_PERSON_AND_ORGANIZATION_ASSIGNMENT(#56,#8,(#60));
#20=CC_DESIGN_SECURITY_CLASSIFICATION(#59,(#60));
#21=CC_DESIGN_PERSON_AND_ORGANIZATION_ASSIGNMENT(#56,#9,(#59));
#22=SHAPE_DEFINITION_REPRESENTATION(#63,#64);
#23=DESIGN_CONTEXT('',#65,'design');
#24=APPLICATION_PROTOCOL_DEFINITION('INTERNATIONAL STANDARD','config_control_design',1994,#65);
#25=PRODUCT_CATEGORY_RELATIONSHIP('NONE','NONE',#66,#67);
#26=DATE_AND_TIME(#68,#69);
#27=DATE_TIME_ROLE('creation_date');
#28=DATE_TIME_ROLE('classification_date');
#29=PERSON_AND_ORGANIZATION_ROLE('creator');
#30=PERSON_AND_ORGANIZATION_ROLE('design_supplier');
#31=PERSON_AND_ORGANIZATION_ROLE('classification_officer');
#32=PERSON_AND_ORGANIZATION_ROLE('design_owner');
#33=APPROVAL_PERSON_ORGANIZATION(#70,#71,#72);
#34=APPROVAL_DATE_TIME(#26,#71);
#35=CC_DESIGN_APPROVAL(#71,(#73,#74,#75));
#36=CC_DESIGN_DATE_AND_TIME_ASSIGNMENT(#26,#27,(#75));
#37=CC_DESIGN_DATE_AND_TIME_ASSIGNMENT(#26,#28,(#73));
#38=CC_DESIGN_PERSON_AND_ORGANIZATION_ASSIGNMENT(#70,#32,(#76));
#39=CC_DESIGN_PERSON_AND_ORGANIZATION_ASSIGNMENT(#70,#29,(#75));
#40=CC_DESIGN_PERSON_AND_ORGANIZATION_ASSIGNMENT(#70,#29,(#74));
#41=CC_DESIGN_PERSON_AND_ORGANIZATION_ASSIGNMENT(#70,#30,(#74));
#42=CC_DESIGN_SECURITY_CLASSIFICATION(#73,(#74));
#43=CC_DESIGN_PERSON_AND_ORGANIZATION_ASSIGNMENT(#70,#31,(#73));
#44=CONTEXT_DEPENDENT_SHAPE_REPRESENTATION(#77,#78);
#45=SHAPE_DEFINITION_REPRESENTATION(#79,#80);
#46=SHAPE_REPRESENTATION_RELATIONSHIP('NONE','NONE',#80,#81);
#47= (GEOMETRIC_REPRESENTATION_CONTEXT(3)GLOBAL_UNCERTAINTY_ASSIGNED_CONTEXT((#84))GLOBAL_UNIT_ASSIGNED_CONTEXT((#86,#87,#88))REPRESENTATION_CONTEXT('NONE','WORKSPACE'));
#51=APPLICATION_CONTEXT('CONFIGURATION CONTROLLED 3D DESIGNS OF MECHANICAL PARTS AND ASSEMBLIES');
#52=PRODUCT_CATEGORY('part','NONE');
#53=PRODUCT_RELATED_PRODUCT_CATEGORY('detail',' ',(#62));
#54=CALENDAR_DATE(2016,19,8);
#55=LOCAL_TIME(20,39,14.0,#90);
#56=PERSON_AND_ORGANIZATION(#91,#92);
#57=APPROVAL(#93,'SOLID MODEL');
#58=APPROVAL_ROLE('APPROVED');
#59=SECURITY_CLASSIFICATION('','',#94);
#60=PRODUCT_DEFINITION_FORMATION_WITH_SPECIFIED_SOURCE(' ','NONE',#62,.NOT_KNOWN.);
#61=PRODUCT_DEFINITION('NONE','NONE',#60,#1);
#62=PRODUCT('','','PART--DESC',(#95));
#63=PRODUCT_DEFINITION_SHAPE('NONE','NONE',#61);
#64=SHAPE_REPRESENTATION('',(#96,#97),#98);
#65=APPLICATION_CONTEXT('CONFIGURATION CONTROLLED 3D DESIGNS OF MECHANICAL PARTS AND ASSEMBLIES');
#66=PRODUCT_CATEGORY('part','NONE');
#67=PRODUCT_RELATED_PRODUCT_CATEGORY('detail',' ',(#76));
#68=CALENDAR_DATE(2016,19,8);
#69=LOCAL_TIME(20,39,14.0,#99);
#70=PERSON_AND_ORGANIZATION(#100,#101);
#71=APPROVAL(#102,'SOLID MODEL');
#72=APPROVAL_ROLE('APPROVED');
#73=SECURITY_CLASSIFICATION('','',#103);
#74=PRODUCT_DEFINITION_FORMATION_WITH_SPECIFIED_SOURCE(' ','NONE',#76,.NOT_KNOWN.);
#75=PRODUCT_DEFINITION('410-BM1321F10LMB','410-BM1321F10LMB',#74,#23);
#76=PRODUCT('410-BM1321F10LMB','410-BM1321F10LMB','PART-410-BM1321F10LMB-DESC',(#104));
#77=(REPRESENTATION_RELATIONSHIP('','',#80,#64)REPRESENTATION_RELATIONSHIP_WITH_TRANSFORMATION(#107)SHAPE_REPRESENTATION_RELATIONSHIP());
#78=PRODUCT_DEFINITION_SHAPE('NAUO-PROD-DEF','NAUO-PROD-DEF',#109);
#79=PRODUCT_DEFINITION_SHAPE('NONE','NONE',#75);
#80=SHAPE_REPRESENTATION('410-BM1321F10LMB',(#96),#98);
#81=ADVANCED_BREP_SHAPE_REPRESENTATION('',(#110),#47);
#84=UNCERTAINTY_MEASURE_WITH_UNIT(LENGTH_MEASURE(1.0E-006),#86,'','');
#86= (CONVERSION_BASED_UNIT('METRE',#113)LENGTH_UNIT()NAMED_UNIT(#116));
#87= (NAMED_UNIT(#118)PLANE_ANGLE_UNIT()SI_UNIT($,.RADIAN.));
#88= (NAMED_UNIT(#118)SOLID_ANGLE_UNIT()SI_UNIT($,.STERADIAN.));
#90=COORDINATED_UNIVERSAL_TIME_OFFSET(1,0,.AHEAD.);
#91=PERSON('','UNSPECIFIED',$,$,$,$);
#92=ORGANIZATION('UNSPECIFIED','UNSPECIFIED','UNSPECIFIED');
#93=APPROVAL_STATUS('approved');
#94=SECURITY_CLASSIFICATION_LEVEL('unclassified');
#95=MECHANICAL_CONTEXT('',#51,'mechanical');
#96=AXIS2_PLACEMENT_3D('',#124,#125,#126);
#97=AXIS2_PLACEMENT_3D('',#127,#128,#129);
#98= (GEOMETRIC_REPRESENTATION_CONTEXT(3)GLOBAL_UNCERTAINTY_ASSIGNED_CONTEXT((#132))GLOBAL_UNIT_ASSIGNED_CONTEXT((#134,#135,#136))REPRESENTATION_CONTEXT('NONE','WORKSPACE'));
#99=COORDINATED_UNIVERSAL_TIME_OFFSET(1,0,.AHEAD.);
#100=PERSON('','UNSPECIFIED',$,$,$,$);
#101=ORGANIZATION('UNSPECIFIED','UNSPECIFIED','UNSPECIFIED');
#102=APPROVAL_STATUS('approved');
#103=SECURITY_CLASSIFICATION_LEVEL('unclassified');
#104=MECHANICAL_CONTEXT('',#65,'mechanical');
#107=ITEM_DEFINED_TRANSFORMATION('','',#96,#97);
#109=NEXT_ASSEMBLY_USAGE_OCCURRENCE('410-BM1321F10LMB','410-BM1321F10LMB','410-BM1321F10LMB',#61,#75,$);
#110=MANIFOLD_SOLID_BREP('',#138);
#113=LENGTH_MEASURE_WITH_UNIT(LENGTH_MEASURE(1.0),#139);
#116=DIMENSIONAL_EXPONENTS(1.0,0.0,0.0,0.0,0.0,0.0,0.0);
#118=DIMENSIONAL_EXPONENTS(0.0,0.0,0.0,0.0,0.0,0.0,0.0);
#124=CARTESIAN_POINT('',(0.0,0.0,0.0));
#125=DIRECTION('',(0.0,0.0,1.0));
#126=DIRECTION('',(1.0,0.0,0.0));
#127=CARTESIAN_POINT('',(0.0,0.0,0.0));
#128=DIRECTION('',(0.0,0.0,1.0));
#129=DIRECTION('',(-1.0,-7.6571373978539E-016,0.0));
#132=UNCERTAINTY_MEASURE_WITH_UNIT(LENGTH_MEASURE(1.0E-006),#134,'','');
#134= (CONVERSION_BASED_UNIT('METRE',#142)LENGTH_UNIT()NAMED_UNIT(#145));
#135= (NAMED_UNIT(#147)PLANE_ANGLE_UNIT()SI_UNIT($,.RADIAN.));
#136= (NAMED_UNIT(#147)SOLID_ANGLE_UNIT()SI_UNIT($,.STERADIAN.));
#138=CLOSED_SHELL('',(#153,#154,#155,#156,#157));
#139= (NAMED_UNIT(#116)LENGTH_UNIT()SI_UNIT($,.METRE.));
#142=LENGTH_MEASURE_WITH_UNIT(LENGTH_MEASURE(1.0),#159);
#145=DIMENSIONAL_EXPONENTS(1.0,0.0,0.0,0.0,0.0,0.0,0.0);
#147=DIMENSIONAL_EXPONENTS(0.0,0.0,0.0,0.0,0.0,0.0,0.0);
#153=ADVANCED_FACE('',(#160),#161,.T.);
#154=ADVANCED_FACE('',(#162),#163,.T.);
#155=ADVANCED_FACE('',(#164),#165,.T.);
#156=ADVANCED_FACE('',(#166),#167,.T.);
#157=ADVANCED_FACE('',(#168),#169,.F.);
#159= (NAMED_UNIT(#145)LENGTH_UNIT()SI_UNIT($,.METRE.));
#160=FACE_OUTER_BOUND('',#171,.T.);
#161=PLANE('',#172);
#162=FACE_OUTER_BOUND('',#173,.T.);
#163=PLANE('',#174);
#164=FACE_OUTER_BOUND('',#175,.T.);
#165=CYLINDRICAL_SURFACE('',#176,0.0175);
#166=FACE_OUTER_BOUND('',#177,.T.);
#167=PLANE('',#178);
#168=FACE_OUTER_BOUND('',#179,.T.);
#169=PLANE('',#180);
#171=EDGE_LOOP('',(#181,#182,#183));
#172=AXIS2_PLACEMENT_3D('',#184,#185,#186);
#173=EDGE_LOOP('',(#187,#188,#189,#190));
#174=AXIS2_PLACEMENT_3D('',#191,#192,#193);
#175=EDGE_LOOP('',(#194,#195,#196,#197));
#176=AXIS2_PLACEMENT_3D('',#198,#199,#200);
#177=EDGE_LOOP('',(#201,#202,#203));
#178=AXIS2_PLACEMENT_3D('',#204,#205,#206);
#179=EDGE_LOOP('',(#207,#208,#209,#210));
#180=AXIS2_PLACEMENT_3D('',#211,#212,#213);
#181=ORIENTED_EDGE('',*,*,#214,.F.);
#182=ORIENTED_EDGE('',*,*,#215,.T.);
#183=ORIENTED_EDGE('',*,*,#216,.F.);
#184=CARTESIAN_POINT('',(0.0175,0.0,0.015));
#185=DIRECTION('',(0.0,0.0,1.0));
#186=DIRECTION('',(1.0,0.0,0.0));
#187=ORIENTED_EDGE('',*,*,#215,.F.);
#188=ORIENTED_EDGE('',*,*,#217,.T.);
#189=ORIENTED_EDGE('',*,*,#218,.T.);
#190=ORIENTED_EDGE('',*,*,#219,.F.);
#191=CARTESIAN_POINT('',(-0.00520955855681633,-0.00188838412504393,-6.70573013395221E-019));
#192=DIRECTION('',(0.173648177666931,-0.984807753012208,7.89131178624443E-017));
#193=DIRECTION('',(-6.92140800245221E-018,-8.13509108797261E-017,-1.0));
#194=ORIENTED_EDGE('',*,*,#216,.T.);
#195=ORIENTED_EDGE('',*,*,#219,.T.);
#196=ORIENTED_EDGE('',*,*,#220,.F.);
#197=ORIENTED_EDGE('',*,*,#221,.F.);
#198=CARTESIAN_POINT('',(0.0,0.0,0.0));
#199=DIRECTION('',(0.0,0.0,-1.0));
#200=DIRECTION('',(-1.0,0.0,0.0));
#201=ORIENTED_EDGE('',*,*,#220,.T.);
#202=ORIENTED_EDGE('',*,*,#218,.F.);
#203=ORIENTED_EDGE('',*,*,#222,.T.);
#204=CARTESIAN_POINT('',(0.0,0.0,0.0));
#205=DIRECTION('',(0.0,0.0,-1.0));
#206=DIRECTION('',(-1.0,0.0,0.0));
#207=ORIENTED_EDGE('',*,*,#221,.T.);
#208=ORIENTED_EDGE('',*,*,#222,.F.);
#209=ORIENTED_EDGE('',*,*,#217,.F.);
#210=ORIENTED_EDGE('',*,*,#214,.T.);
#211=CARTESIAN_POINT('',(-0.00520955855681633,0.00188838412504393,-8.98320006356238E-019));
#212=DIRECTION('',(-0.173648177666931,-0.984807753012208,8.26058798084194E-017));
#213=DIRECTION('',(-1.43443604933055E-017,-8.1350910879726E-017,-1.0));
#214=EDGE_CURVE('',#223,#224,#225,.T.);
#215=EDGE_CURVE('',#223,#226,#227,.T.);
#216=EDGE_CURVE('',#224,#226,#228,.T.);
#217=EDGE_CURVE('',#223,#229,#230,.T.);
#218=EDGE_CURVE('',#229,#231,#232,.T.);
#219=EDGE_CURVE('',#226,#231,#233,.T.);
#220=EDGE_CURVE('',#234,#231,#235,.T.);
#221=EDGE_CURVE('',#224,#234,#236,.T.);
#222=EDGE_CURVE('',#229,#234,#237,.T.);
#223=VERTEX_POINT('',#238);
#224=VERTEX_POINT('',#239);
#225=LINE('',#240,#241);
#226=VERTEX_POINT('',#242);
#227=LINE('',#243,#244);
#228=CIRCLE('',#245,0.0175);
#229=VERTEX_POINT('',#246);
#230=LINE('',#247,#248);
#231=VERTEX_POINT('',#249);
#232=LINE('',#250,#251);
#233=LINE('',#252,#253);
#234=VERTEX_POINT('',#254);
#235=CIRCLE('',#255,0.0175);
#236=LINE('',#256,#257);
#237=LINE('',#258,#259);
#238=CARTESIAN_POINT('',(0.0055,1.73472347597681E-018,0.015));
#239=CARTESIAN_POINT('',(0.0173742963593463,-0.00209375882508105,0.015));
#240=CARTESIAN_POINT('',(0.0171381557247155,-0.00205212085995401,0.015));
#241=VECTOR('',#260,1.0);
#242=CARTESIAN_POINT('',(0.0173742963593463,0.00209375882508105,0.015));
#243=CARTESIAN_POINT('',(0.0171381557247155,0.00205212085995402,0.015));
#244=VECTOR('',#261,1.0);
#245=AXIS2_PLACEMENT_3D('',#262,#263,#264);
#246=CARTESIAN_POINT('',(0.0055,0.0,0.0));
#247=CARTESIAN_POINT('',(0.0055,0.0,0.021));
#248=VECTOR('',#265,1.0);
#249=CARTESIAN_POINT('',(0.0173742963593463,0.00209375882508105,3.90567001820926E-019));
#250=CARTESIAN_POINT('',(0.0055,0.0,6.43083039248804E-019));
#251=VECTOR('',#266,1.0);
#252=CARTESIAN_POINT('',(0.0173742963593463,0.00209375882508105,7.53671551095602E-020));
#253=VECTOR('',#267,1.0);
#254=CARTESIAN_POINT('',(0.0173742963593463,-0.00209375882508105,6.43083039248804E-019));
#255=AXIS2_PLACEMENT_3D('',#268,#269,#270);
#256=CARTESIAN_POINT('',(0.0173742963593463,-0.00209375882508105,-7.88939827131804E-020));
#257=VECTOR('',#271,1.0);
#258=CARTESIAN_POINT('',(0.0055,0.0,6.43083039248804E-019));
#259=VECTOR('',#272,1.0);
#260=DIRECTION('',(0.984807753012208,-0.173648177666931,0.0));
#261=DIRECTION('',(0.984807753012208,0.173648177666931,0.0));
#262=CARTESIAN_POINT('',(0.0,0.0,0.015));
#263=DIRECTION('',(0.0,0.0,-1.0));
#264=DIRECTION('',(-1.0,0.0,0.0));
#265=DIRECTION('',(-6.92140800245221E-018,-8.13509108797261E-017,-1.0));
#266=DIRECTION('',(0.984807753012208,0.173648177666931,-2.0942693688385E-017));
#267=DIRECTION('',(0.0,0.0,-1.0));
#268=CARTESIAN_POINT('',(0.0,0.0,0.0));
#269=DIRECTION('',(0.0,0.0,-1.0));
#270=DIRECTION('',(-1.0,0.0,0.0));
#271=DIRECTION('',(0.0,0.0,-1.0));
#272=DIRECTION('',(0.984807753012208,-0.173648177666931,0.0));
ENDSEC;
END-ISO-10303-21;
