ISO-10303-21;
HEADER;
FILE_DESCRIPTION(('STEP AP203'),'1');
FILE_NAME('400-BM5555LMB.stp','2016-09-19T22:30:17',(' '),(' '),'Spatial InterOp 3D',' ',' ');
FILE_SCHEMA(('CONFIG_CONTROL_DESIGN'));
ENDSEC;
DATA;
#1=DESIGN_CONTEXT('',#27,'design');
#2=APPLICATION_PROTOCOL_DEFINITION('INTERNATIONAL STANDARD','config_control_design',1994,#27);
#3=PRODUCT_CATEGORY_RELATIONSHIP('NONE','NONE',#28,#29);
#4=DATE_AND_TIME(#30,#31);
#5=DATE_TIME_ROLE('creation_date');
#6=DATE_TIME_ROLE('classification_date');
#7=PERSON_AND_ORGANIZATION_ROLE('creator');
#8=PERSON_AND_ORGANIZATION_ROLE('design_supplier');
#9=PERSON_AND_ORGANIZATION_ROLE('classification_officer');
#10=PERSON_AND_ORGANIZATION_ROLE('design_owner');
#11=APPROVAL_PERSON_ORGANIZATION(#32,#33,#34);
#12=APPROVAL_DATE_TIME(#4,#33);
#13=CC_DESIGN_APPROVAL(#33,(#35,#36,#37));
#14=CC_DESIGN_DATE_AND_TIME_ASSIGNMENT(#4,#5,(#37));
#15=CC_DESIGN_DATE_AND_TIME_ASSIGNMENT(#4,#6,(#35));
#16=CC_DESIGN_PERSON_AND_ORGANIZATION_ASSIGNMENT(#32,#10,(#38));
#17=CC_DESIGN_PERSON_AND_ORGANIZATION_ASSIGNMENT(#32,#7,(#37));
#18=CC_DESIGN_PERSON_AND_ORGANIZATION_ASSIGNMENT(#32,#7,(#36));
#19=CC_DESIGN_PERSON_AND_ORGANIZATION_ASSIGNMENT(#32,#8,(#36));
#20=CC_DESIGN_SECURITY_CLASSIFICATION(#35,(#36));
#21=CC_DESIGN_PERSON_AND_ORGANIZATION_ASSIGNMENT(#32,#9,(#35));
#22=SHAPE_DEFINITION_REPRESENTATION(#39,#40);
#23= (GEOMETRIC_REPRESENTATION_CONTEXT(3)GLOBAL_UNCERTAINTY_ASSIGNED_CONTEXT((#43))GLOBAL_UNIT_ASSIGNED_CONTEXT((#45,#46,#47))REPRESENTATION_CONTEXT('NONE','WORKSPACE'));
#27=APPLICATION_CONTEXT('CONFIGURATION CONTROLLED 3D DESIGNS OF MECHANICAL PARTS AND ASSEMBLIES');
#28=PRODUCT_CATEGORY('part','NONE');
#29=PRODUCT_RELATED_PRODUCT_CATEGORY('detail',' ',(#38));
#30=CALENDAR_DATE(2016,20,8);
#31=LOCAL_TIME(0,30,17.0,#49);
#32=PERSON_AND_ORGANIZATION(#50,#51);
#33=APPROVAL(#52,'SOLID MODEL');
#34=APPROVAL_ROLE('APPROVED');
#35=SECURITY_CLASSIFICATION('','',#53);
#36=PRODUCT_DEFINITION_FORMATION_WITH_SPECIFIED_SOURCE(' ','NONE',#38,.NOT_KNOWN.);
#37=PRODUCT_DEFINITION('NONE','NONE',#36,#1);
#38=PRODUCT('1','1','PART-1-DESC',(#54));
#39=PRODUCT_DEFINITION_SHAPE('NONE','NONE',#37);
#40=ADVANCED_BREP_SHAPE_REPRESENTATION('1',(#55,#56),#23);
#43=UNCERTAINTY_MEASURE_WITH_UNIT(LENGTH_MEASURE(1.0E-006),#45,'','');
#45= (CONVERSION_BASED_UNIT('MILLIMETRE',#59)LENGTH_UNIT()NAMED_UNIT(#62));
#46= (NAMED_UNIT(#64)PLANE_ANGLE_UNIT()SI_UNIT($,.RADIAN.));
#47= (NAMED_UNIT(#64)SOLID_ANGLE_UNIT()SI_UNIT($,.STERADIAN.));
#49=COORDINATED_UNIVERSAL_TIME_OFFSET(1,0,.AHEAD.);
#50=PERSON('','UNSPECIFIED',$,$,$,$);
#51=ORGANIZATION('UNSPECIFIED','UNSPECIFIED','UNSPECIFIED');
#52=APPROVAL_STATUS('approved');
#53=SECURITY_CLASSIFICATION_LEVEL('unclassified');
#54=MECHANICAL_CONTEXT('',#27,'mechanical');
#55=MANIFOLD_SOLID_BREP('1',#70);
#56=AXIS2_PLACEMENT_3D('',#71,#72,#73);
#59=LENGTH_MEASURE_WITH_UNIT(LENGTH_MEASURE(1.0),#74);
#62=DIMENSIONAL_EXPONENTS(1.0,0.0,0.0,0.0,0.0,0.0,0.0);
#64=DIMENSIONAL_EXPONENTS(0.0,0.0,0.0,0.0,0.0,0.0,0.0);
#70=CLOSED_SHELL('',(#75,#76,#77,#78,#79,#80,#81,#82,#83,#84,#85,#86,#87,#88,#89,#90));
#71=CARTESIAN_POINT('',(0.0,0.0,0.0));
#72=DIRECTION('',(0.0,0.0,1.0));
#73=DIRECTION('',(1.0,0.0,0.0));
#74= (NAMED_UNIT(#62)LENGTH_UNIT()SI_UNIT(.MILLI.,.METRE.));
#75=ADVANCED_FACE('',(#92),#93,.F.);
#76=ADVANCED_FACE('',(#94),#95,.F.);
#77=ADVANCED_FACE('',(#96),#97,.T.);
#78=ADVANCED_FACE('',(#98),#99,.T.);
#79=ADVANCED_FACE('',(#100),#101,.T.);
#80=ADVANCED_FACE('',(#102),#103,.F.);
#81=ADVANCED_FACE('',(#104),#105,.F.);
#82=ADVANCED_FACE('',(#106),#107,.T.);
#83=ADVANCED_FACE('',(#108),#109,.T.);
#84=ADVANCED_FACE('',(#110),#111,.T.);
#85=ADVANCED_FACE('',(#112),#113,.T.);
#86=ADVANCED_FACE('',(#114),#115,.T.);
#87=ADVANCED_FACE('',(#116),#117,.F.);
#88=ADVANCED_FACE('',(#118),#119,.F.);
#89=ADVANCED_FACE('',(#120),#121,.T.);
#90=ADVANCED_FACE('',(#122),#123,.F.);
#92=FACE_OUTER_BOUND('',#124,.T.);
#93=CYLINDRICAL_SURFACE('',#125,27.5);
#94=FACE_OUTER_BOUND('',#126,.T.);
#95=CONICAL_SURFACE('',#127,27.6732050807569,0.523598775598297);
#96=FACE_OUTER_BOUND('',#128,.T.);
#97=CONICAL_SURFACE('',#129,29.6724267891604,0.34906585039887);
#98=FACE_OUTER_BOUND('',#130,.T.);
#99=CYLINDRICAL_SURFACE('',#131,30.0);
#100=FACE_OUTER_BOUND('',#132,.T.);
#101=CONICAL_SURFACE('',#133,29.6724267891604,0.349065850398857);
#102=FACE_OUTER_BOUND('',#134,.T.);
#103=CONICAL_SURFACE('',#135,27.6732050807569,0.523598775598302);
#104=FACE_OUTER_BOUND('',#136,.T.);
#105=CONICAL_SURFACE('',#137,27.6732050807569,0.523598775598302);
#106=FACE_OUTER_BOUND('',#138,.T.);
#107=PLANE('',#139);
#108=FACE_OUTER_BOUND('',#140,.T.);
#109=CONICAL_SURFACE('',#141,29.6724267891604,0.349065850398857);
#110=FACE_OUTER_BOUND('',#142,.T.);
#111=CYLINDRICAL_SURFACE('',#143,30.0);
#112=FACE_OUTER_BOUND('',#144,.T.);
#113=CONICAL_SURFACE('',#145,29.6724267891604,0.34906585039887);
#114=FACE_OUTER_BOUND('',#146,.T.);
#115=PLANE('',#147);
#116=FACE_OUTER_BOUND('',#148,.T.);
#117=CONICAL_SURFACE('',#149,27.6732050807569,0.523598775598297);
#118=FACE_OUTER_BOUND('',#150,.T.);
#119=CYLINDRICAL_SURFACE('',#151,27.5);
#120=FACE_OUTER_BOUND('',#152,.T.);
#121=PLANE('',#153);
#122=FACE_OUTER_BOUND('',#154,.T.);
#123=PLANE('',#155);
#124=EDGE_LOOP('',(#156,#157,#158,#159));
#125=AXIS2_PLACEMENT_3D('',#160,#161,#162);
#126=EDGE_LOOP('',(#163,#164,#165,#166));
#127=AXIS2_PLACEMENT_3D('',#167,#168,#169);
#128=EDGE_LOOP('',(#170,#171,#172,#173));
#129=AXIS2_PLACEMENT_3D('',#174,#175,#176);
#130=EDGE_LOOP('',(#177,#178,#179,#180));
#131=AXIS2_PLACEMENT_3D('',#181,#182,#183);
#132=EDGE_LOOP('',(#184,#185,#186,#187));
#133=AXIS2_PLACEMENT_3D('',#188,#189,#190);
#134=EDGE_LOOP('',(#191,#192,#193,#194));
#135=AXIS2_PLACEMENT_3D('',#195,#196,#197);
#136=EDGE_LOOP('',(#198,#199,#200,#201));
#137=AXIS2_PLACEMENT_3D('',#202,#203,#204);
#138=EDGE_LOOP('',(#205,#206,#207,#208,#209,#210));
#139=AXIS2_PLACEMENT_3D('',#211,#212,#213);
#140=EDGE_LOOP('',(#214,#215,#216,#217));
#141=AXIS2_PLACEMENT_3D('',#218,#219,#220);
#142=EDGE_LOOP('',(#221,#222,#223,#224));
#143=AXIS2_PLACEMENT_3D('',#225,#226,#227);
#144=EDGE_LOOP('',(#228,#229,#230,#231));
#145=AXIS2_PLACEMENT_3D('',#232,#233,#234);
#146=EDGE_LOOP('',(#235,#236,#237,#238,#239,#240));
#147=AXIS2_PLACEMENT_3D('',#241,#242,#243);
#148=EDGE_LOOP('',(#244,#245,#246,#247));
#149=AXIS2_PLACEMENT_3D('',#248,#249,#250);
#150=EDGE_LOOP('',(#251,#252,#253,#254));
#151=AXIS2_PLACEMENT_3D('',#255,#256,#257);
#152=EDGE_LOOP('',(#258,#259,#260,#261,#262,#263,#264,#265));
#153=AXIS2_PLACEMENT_3D('',#266,#267,#268);
#154=EDGE_LOOP('',(#269,#270,#271,#272,#273,#274,#275,#276));
#155=AXIS2_PLACEMENT_3D('',#277,#278,#279);
#156=ORIENTED_EDGE('',*,*,#280,.F.);
#157=ORIENTED_EDGE('',*,*,#281,.T.);
#158=ORIENTED_EDGE('',*,*,#282,.T.);
#159=ORIENTED_EDGE('',*,*,#283,.F.);
#160=CARTESIAN_POINT('',(1.54427536873879E-014,-1.58483912798152E-014,27.5));
#161=DIRECTION('',(5.48707263966375E-016,-6.09939603923743E-016,1.0));
#162=DIRECTION('',(-1.0,1.81807802661497E-015,5.48707263966376E-016));
#163=ORIENTED_EDGE('',*,*,#284,.F.);
#164=ORIENTED_EDGE('',*,*,#285,.T.);
#165=ORIENTED_EDGE('',*,*,#286,.T.);
#166=ORIENTED_EDGE('',*,*,#281,.F.);
#167=CARTESIAN_POINT('',(3.03675912672733E-014,-3.29936749089509E-014,54.7));
#168=DIRECTION('',(5.48707263966375E-016,-6.09939603923743E-016,1.0));
#169=DIRECTION('',(-1.0,1.81807802661497E-015,5.48707263966376E-016));
#170=ORIENTED_EDGE('',*,*,#287,.F.);
#171=ORIENTED_EDGE('',*,*,#288,.F.);
#172=ORIENTED_EDGE('',*,*,#289,.F.);
#173=ORIENTED_EDGE('',*,*,#290,.T.);
#174=CARTESIAN_POINT('',(3.00383669088935E-014,-3.26644505505711E-014,54.1));
#175=DIRECTION('',(-5.48707263966375E-016,6.09939603923743E-016,-1.0));
#176=DIRECTION('',(-1.0,1.81807802661497E-015,5.48707263966376E-016));
#177=ORIENTED_EDGE('',*,*,#291,.F.);
#178=ORIENTED_EDGE('',*,*,#290,.F.);
#179=ORIENTED_EDGE('',*,*,#292,.F.);
#180=ORIENTED_EDGE('',*,*,#293,.T.);
#181=CARTESIAN_POINT('',(1.54427536873879E-014,-1.58483912798152E-014,27.5));
#182=DIRECTION('',(5.48707263966375E-016,-6.09939603923743E-016,1.0));
#183=DIRECTION('',(-1.0,1.81807802661497E-015,5.48707263966376E-016));
#184=ORIENTED_EDGE('',*,*,#294,.F.);
#185=ORIENTED_EDGE('',*,*,#293,.F.);
#186=ORIENTED_EDGE('',*,*,#295,.F.);
#187=ORIENTED_EDGE('',*,*,#296,.T.);
#188=CARTESIAN_POINT('',(8.47140465882374E-016,-1.25277805830959E-015,0.9));
#189=DIRECTION('',(5.48707263966375E-016,-6.09939603923743E-016,1.0));
#190=DIRECTION('',(-1.0,1.81807802661497E-015,5.48707263966376E-016));
#191=ORIENTED_EDGE('',*,*,#297,.F.);
#192=ORIENTED_EDGE('',*,*,#283,.T.);
#193=ORIENTED_EDGE('',*,*,#298,.T.);
#194=ORIENTED_EDGE('',*,*,#299,.F.);
#195=CARTESIAN_POINT('',(5.17916107502552E-016,-9.23553699929768E-016,0.300000000000004));
#196=DIRECTION('',(-5.48707263966375E-016,6.09939603923743E-016,-1.0));
#197=DIRECTION('',(-1.0,1.81807802661497E-015,5.48707263966376E-016));
#198=ORIENTED_EDGE('',*,*,#297,.T.);
#199=ORIENTED_EDGE('',*,*,#300,.F.);
#200=ORIENTED_EDGE('',*,*,#301,.F.);
#201=ORIENTED_EDGE('',*,*,#302,.T.);
#202=CARTESIAN_POINT('',(5.17916107502552E-016,-9.23553699929768E-016,0.300000000000004));
#203=DIRECTION('',(-5.48707263966375E-016,6.09939603923743E-016,-1.0));
#204=DIRECTION('',(-1.0,1.81807802661497E-015,5.48707263966376E-016));
#205=ORIENTED_EDGE('',*,*,#303,.T.);
#206=ORIENTED_EDGE('',*,*,#304,.F.);
#207=ORIENTED_EDGE('',*,*,#296,.F.);
#208=ORIENTED_EDGE('',*,*,#305,.F.);
#209=ORIENTED_EDGE('',*,*,#300,.T.);
#210=ORIENTED_EDGE('',*,*,#299,.T.);
#211=CARTESIAN_POINT('',(-28.5956318699173,5.46321929627914E-014,1.8411224817339E-014));
#212=DIRECTION('',(1.64929670302341E-016,6.09939603923742E-016,-1.0));
#213=DIRECTION('',(1.0,-1.89882151931499E-015,1.6492967030234E-016));
#214=ORIENTED_EDGE('',*,*,#294,.T.);
#215=ORIENTED_EDGE('',*,*,#304,.T.);
#216=ORIENTED_EDGE('',*,*,#306,.T.);
#217=ORIENTED_EDGE('',*,*,#307,.F.);
#218=CARTESIAN_POINT('',(8.47140465882374E-016,-1.25277805830959E-015,0.9));
#219=DIRECTION('',(5.48707263966375E-016,-6.09939603923743E-016,1.0));
#220=DIRECTION('',(-1.0,1.81807802661497E-015,5.48707263966376E-016));
#221=ORIENTED_EDGE('',*,*,#291,.T.);
#222=ORIENTED_EDGE('',*,*,#307,.T.);
#223=ORIENTED_EDGE('',*,*,#308,.T.);
#224=ORIENTED_EDGE('',*,*,#309,.F.);
#225=CARTESIAN_POINT('',(1.54427536873879E-014,-1.58483912798152E-014,27.5));
#226=DIRECTION('',(5.48707263966375E-016,-6.09939603923743E-016,1.0));
#227=DIRECTION('',(-1.0,1.81807802661497E-015,5.48707263966376E-016));
#228=ORIENTED_EDGE('',*,*,#287,.T.);
#229=ORIENTED_EDGE('',*,*,#309,.T.);
#230=ORIENTED_EDGE('',*,*,#310,.T.);
#231=ORIENTED_EDGE('',*,*,#311,.F.);
#232=CARTESIAN_POINT('',(3.00383669088935E-014,-3.26644505505711E-014,54.1));
#233=DIRECTION('',(-5.48707263966375E-016,6.09939603923743E-016,-1.0));
#234=DIRECTION('',(-1.0,1.81807802661497E-015,5.48707263966376E-016));
#235=ORIENTED_EDGE('',*,*,#312,.T.);
#236=ORIENTED_EDGE('',*,*,#285,.F.);
#237=ORIENTED_EDGE('',*,*,#313,.F.);
#238=ORIENTED_EDGE('',*,*,#314,.F.);
#239=ORIENTED_EDGE('',*,*,#288,.T.);
#240=ORIENTED_EDGE('',*,*,#311,.T.);
#241=CARTESIAN_POINT('',(-28.5956318699173,2.00124013461401E-014,55.0));
#242=DIRECTION('',(5.48707263966375E-016,-6.09939603923743E-016,1.0));
#243=DIRECTION('',(-1.0,1.89882151931499E-015,5.48707263966376E-016));
#244=ORIENTED_EDGE('',*,*,#284,.T.);
#245=ORIENTED_EDGE('',*,*,#315,.F.);
#246=ORIENTED_EDGE('',*,*,#316,.F.);
#247=ORIENTED_EDGE('',*,*,#313,.T.);
#248=CARTESIAN_POINT('',(3.03675912672733E-014,-3.29936749089509E-014,54.7));
#249=DIRECTION('',(5.48707263966375E-016,-6.09939603923743E-016,1.0));
#250=DIRECTION('',(-1.0,1.81807802661497E-015,5.48707263966376E-016));
#251=ORIENTED_EDGE('',*,*,#280,.T.);
#252=ORIENTED_EDGE('',*,*,#302,.F.);
#253=ORIENTED_EDGE('',*,*,#317,.F.);
#254=ORIENTED_EDGE('',*,*,#315,.T.);
#255=CARTESIAN_POINT('',(1.54427536873879E-014,-1.58483912798152E-014,27.5));
#256=DIRECTION('',(5.48707263966375E-016,-6.09939603923743E-016,1.0));
#257=DIRECTION('',(-1.0,1.81807802661497E-015,5.48707263966376E-016));
#258=ORIENTED_EDGE('',*,*,#298,.F.);
#259=ORIENTED_EDGE('',*,*,#282,.F.);
#260=ORIENTED_EDGE('',*,*,#286,.F.);
#261=ORIENTED_EDGE('',*,*,#312,.F.);
#262=ORIENTED_EDGE('',*,*,#310,.F.);
#263=ORIENTED_EDGE('',*,*,#308,.F.);
#264=ORIENTED_EDGE('',*,*,#306,.F.);
#265=ORIENTED_EDGE('',*,*,#303,.F.);
#266=CARTESIAN_POINT('',(-28.7330953594394,0.501538045087721,27.5));
#267=DIRECTION('',(-0.0174524064372855,-0.999847695156391,-6.22142810284839E-016));
#268=DIRECTION('',(5.48325538557363E-016,-6.31808637959481E-016,1.0));
#269=ORIENTED_EDGE('',*,*,#317,.T.);
#270=ORIENTED_EDGE('',*,*,#301,.T.);
#271=ORIENTED_EDGE('',*,*,#305,.T.);
#272=ORIENTED_EDGE('',*,*,#295,.T.);
#273=ORIENTED_EDGE('',*,*,#292,.T.);
#274=ORIENTED_EDGE('',*,*,#289,.T.);
#275=ORIENTED_EDGE('',*,*,#314,.T.);
#276=ORIENTED_EDGE('',*,*,#316,.T.);
#277=CARTESIAN_POINT('',(-28.7374722156509,3.97403977211708E-014,27.5));
#278=DIRECTION('',(-1.89882151931519E-015,-1.0,-6.31811969226656E-016));
#279=DIRECTION('',(5.48707263966375E-016,-6.31811969226657E-016,1.0));
#280=EDGE_CURVE('',#318,#319,#320,.T.);
#281=EDGE_CURVE('',#318,#321,#322,.T.);
#282=EDGE_CURVE('',#321,#323,#324,.T.);
#283=EDGE_CURVE('',#319,#323,#325,.T.);
#284=EDGE_CURVE('',#326,#318,#327,.T.);
#285=EDGE_CURVE('',#326,#328,#329,.T.);
#286=EDGE_CURVE('',#328,#321,#330,.T.);
#287=EDGE_CURVE('',#331,#332,#333,.T.);
#288=EDGE_CURVE('',#334,#331,#335,.T.);
#289=EDGE_CURVE('',#336,#334,#337,.T.);
#290=EDGE_CURVE('',#336,#332,#338,.T.);
#291=EDGE_CURVE('',#332,#339,#340,.T.);
#292=EDGE_CURVE('',#341,#336,#342,.T.);
#293=EDGE_CURVE('',#341,#339,#343,.T.);
#294=EDGE_CURVE('',#339,#344,#345,.T.);
#295=EDGE_CURVE('',#346,#341,#347,.T.);
#296=EDGE_CURVE('',#346,#344,#348,.T.);
#297=EDGE_CURVE('',#319,#349,#350,.T.);
#298=EDGE_CURVE('',#323,#351,#352,.T.);
#299=EDGE_CURVE('',#349,#351,#353,.T.);
#300=EDGE_CURVE('',#354,#349,#355,.T.);
#301=EDGE_CURVE('',#356,#354,#357,.T.);
#302=EDGE_CURVE('',#356,#319,#358,.T.);
#303=EDGE_CURVE('',#351,#359,#360,.T.);
#304=EDGE_CURVE('',#344,#359,#361,.T.);
#305=EDGE_CURVE('',#354,#346,#362,.T.);
#306=EDGE_CURVE('',#359,#363,#364,.T.);
#307=EDGE_CURVE('',#339,#363,#365,.T.);
#308=EDGE_CURVE('',#363,#366,#367,.T.);
#309=EDGE_CURVE('',#332,#366,#368,.T.);
#310=EDGE_CURVE('',#366,#369,#370,.T.);
#311=EDGE_CURVE('',#331,#369,#371,.T.);
#312=EDGE_CURVE('',#369,#328,#372,.T.);
#313=EDGE_CURVE('',#373,#326,#374,.T.);
#314=EDGE_CURVE('',#334,#373,#375,.T.);
#315=EDGE_CURVE('',#376,#318,#377,.T.);
#316=EDGE_CURVE('',#373,#376,#378,.T.);
#317=EDGE_CURVE('',#376,#356,#379,.T.);
#318=VERTEX_POINT('',#380);
#319=VERTEX_POINT('',#381);
#320=LINE('',#382,#383);
#321=VERTEX_POINT('',#384);
#322=CIRCLE('',#385,27.5);
#323=VERTEX_POINT('',#386);
#324=LINE('',#387,#388);
#325=CIRCLE('',#389,27.5);
#326=VERTEX_POINT('',#390);
#327=LINE('',#391,#392);
#328=VERTEX_POINT('',#393);
#329=CIRCLE('',#394,27.8464101615138);
#330=LINE('',#395,#396);
#331=VERTEX_POINT('',#397);
#332=VERTEX_POINT('',#398);
#333=LINE('',#399,#400);
#334=VERTEX_POINT('',#401);
#335=CIRCLE('',#402,29.3448535783208);
#336=VERTEX_POINT('',#403);
#337=LINE('',#404,#405);
#338=CIRCLE('',#406,30.0);
#339=VERTEX_POINT('',#407);
#340=LINE('',#408,#409);
#341=VERTEX_POINT('',#410);
#342=LINE('',#411,#412);
#343=CIRCLE('',#413,30.0);
#344=VERTEX_POINT('',#414);
#345=LINE('',#415,#416);
#346=VERTEX_POINT('',#417);
#347=LINE('',#418,#419);
#348=CIRCLE('',#420,29.3448535783208);
#349=VERTEX_POINT('',#421);
#350=LINE('',#422,#423);
#351=VERTEX_POINT('',#424);
#352=LINE('',#425,#426);
#353=CIRCLE('',#427,27.8464101615138);
#354=VERTEX_POINT('',#428);
#355=CIRCLE('',#429,27.8464101615138);
#356=VERTEX_POINT('',#430);
#357=LINE('',#431,#432);
#358=CIRCLE('',#433,27.5);
#359=VERTEX_POINT('',#434);
#360=LINE('',#435,#436);
#361=CIRCLE('',#437,29.3448535783208);
#362=LINE('',#438,#439);
#363=VERTEX_POINT('',#440);
#364=LINE('',#441,#442);
#365=CIRCLE('',#443,30.0);
#366=VERTEX_POINT('',#444);
#367=LINE('',#445,#446);
#368=CIRCLE('',#447,30.0);
#369=VERTEX_POINT('',#448);
#370=LINE('',#449,#450);
#371=CIRCLE('',#451,29.3448535783208);
#372=LINE('',#452,#453);
#373=VERTEX_POINT('',#454);
#374=CIRCLE('',#455,27.8464101615138);
#375=LINE('',#456,#457);
#376=VERTEX_POINT('',#458);
#377=CIRCLE('',#459,27.5);
#378=LINE('',#460,#461);
#379=LINE('',#462,#463);
#380=CARTESIAN_POINT('',(27.5,-8.61756174573408E-014,54.4));
#381=CARTESIAN_POINT('',(27.5,-5.44714600106739E-014,0.599999999999991));
#382=CARTESIAN_POINT('',(27.5,-6.92133157093822E-014,27.5));
#383=VECTOR('',#464,1.0);
#384=CARTESIAN_POINT('',(-27.4958116168007,0.479941177025315,54.4));
#385=AXIS2_PLACEMENT_3D('',#465,#466,#467);
#386=CARTESIAN_POINT('',(-27.4958116168008,0.479941177025349,0.600000000000022));
#387=CARTESIAN_POINT('',(-27.4958116168007,0.479941177025312,54.4));
#388=VECTOR('',#468,10.0);
#389=AXIS2_PLACEMENT_3D('',#469,#470,#471);
#390=CARTESIAN_POINT('',(27.8464101615138,-8.72138049320884E-014,55.0));
#391=CARTESIAN_POINT('',(27.6732050807569,-8.66947111947146E-014,54.7));
#392=VECTOR('',#472,1.0);
#393=CARTESIAN_POINT('',(-27.842169018369,0.48598686795806,55.0));
#394=AXIS2_PLACEMENT_3D('',#473,#474,#475);
#395=CARTESIAN_POINT('',(-27.842169018369,0.485986867958058,55.0));
#396=VECTOR('',#476,10.0);
#397=CARTESIAN_POINT('',(29.3448535783208,-9.01583377796952E-014,55.0));
#398=CARTESIAN_POINT('',(30.0,-8.97401202965466E-014,53.2));
#399=CARTESIAN_POINT('',(29.6724267891604,-9.02450619413131E-014,54.1));
#400=VECTOR('',#477,1.0);
#401=CARTESIAN_POINT('',(-29.3448535783208,2.10564417739548E-014,55.0));
#402=AXIS2_PLACEMENT_3D('',#478,#479,#480);
#403=CARTESIAN_POINT('',(-30.0,2.29570613677272E-014,53.2));
#404=CARTESIAN_POINT('',(-30.0,2.29570613677272E-014,53.2));
#405=VECTOR('',#481,9.99999999999999);
#406=AXIS2_PLACEMENT_3D('',#482,#483,#484);
#407=CARTESIAN_POINT('',(30.0,-6.00180048977322E-014,1.79999999999999));
#408=CARTESIAN_POINT('',(30.0,-7.40646724757064E-014,27.5));
#409=VECTOR('',#485,1.0);
#410=CARTESIAN_POINT('',(-30.0,5.56015068340995E-014,1.80000000000002));
#411=CARTESIAN_POINT('',(-30.0,5.56015068340995E-014,1.80000000000002));
#412=VECTOR('',#486,10.0);
#413=AXIS2_PLACEMENT_3D('',#487,#488,#489);
#414=CARTESIAN_POINT('',(29.3448535783208,-5.7648774000371E-014,-1.46584443864416E-014));
#415=CARTESIAN_POINT('',(29.6724267891604,-5.88333894490516E-014,0.899999999999984));
#416=VECTOR('',#490,1.0);
#417=CARTESIAN_POINT('',(-29.3448535783208,5.56762333906061E-014,1.82876559279886E-014));
#418=CARTESIAN_POINT('',(-29.3448535783208,5.56762333906061E-014,1.82876559279886E-014));
#419=VECTOR('',#491,9.99999999999999);
#420=AXIS2_PLACEMENT_3D('',#492,#493,#494);
#421=CARTESIAN_POINT('',(27.8464101615138,-5.4777719960713E-014,-1.38917487502283E-014));
#422=CARTESIAN_POINT('',(27.6732050807569,-5.46245899856935E-014,0.299999999999989));
#423=VECTOR('',#495,1.0);
#424=CARTESIAN_POINT('',(-27.8421690183691,0.485986867958095,1.69588230614081E-014));
#425=CARTESIAN_POINT('',(-27.4958116168008,0.479941177025349,0.600000000000017));
#426=VECTOR('',#496,10.0);
#427=AXIS2_PLACEMENT_3D('',#497,#498,#499);
#428=CARTESIAN_POINT('',(-27.8464101615138,5.35881525349767E-014,1.85347937066893E-014));
#429=AXIS2_PLACEMENT_3D('',#500,#501,#502);
#430=CARTESIAN_POINT('',(-27.5,5.055575957784E-014,0.600000000000017));
#431=CARTESIAN_POINT('',(-27.5,5.055575957784E-014,0.600000000000017));
#432=VECTOR('',#503,10.0);
#433=AXIS2_PLACEMENT_3D('',#504,#505,#506);
#434=CARTESIAN_POINT('',(-29.3403842149859,0.512138311491486,1.77968554238874E-014));
#435=CARTESIAN_POINT('',(-27.8421690183691,0.485986867958095,1.88439808857168E-014));
#436=VECTOR('',#507,10.0);
#437=AXIS2_PLACEMENT_3D('',#508,#509,#510);
#438=CARTESIAN_POINT('',(-27.8464101615138,5.35881525349767E-014,1.85347937066893E-014));
#439=VECTOR('',#511,10.0);
#440=CARTESIAN_POINT('',(-29.9954308546917,0.523572193118562,1.80000000000002));
#441=CARTESIAN_POINT('',(-29.3403842149859,0.512138311491486,1.86126686820507E-014));
#442=VECTOR('',#512,9.99999999999999);
#443=AXIS2_PLACEMENT_3D('',#513,#514,#515);
#444=CARTESIAN_POINT('',(-29.9954308546917,0.52357219311853,53.2));
#445=CARTESIAN_POINT('',(-29.9954308546917,0.52357219311856,1.80000000000002));
#446=VECTOR('',#516,10.0);
#447=AXIS2_PLACEMENT_3D('',#517,#518,#519);
#448=CARTESIAN_POINT('',(-29.3403842149858,0.512138311491451,55.0));
#449=CARTESIAN_POINT('',(-29.9954308546917,0.523572193118527,53.2));
#450=VECTOR('',#520,9.99999999999999);
#451=AXIS2_PLACEMENT_3D('',#521,#522,#523);
#452=CARTESIAN_POINT('',(-29.3403842149858,0.512138311491449,55.0));
#453=VECTOR('',#524,10.0);
#454=CARTESIAN_POINT('',(-27.8464101615137,1.89683609183254E-014,55.0));
#455=AXIS2_PLACEMENT_3D('',#525,#526,#527);
#456=CARTESIAN_POINT('',(-29.3448535783208,2.10564417739548E-014,55.0));
#457=VECTOR('',#528,10.0);
#458=CARTESIAN_POINT('',(-27.5,1.65944166779483E-014,54.4));
#459=AXIS2_PLACEMENT_3D('',#529,#530,#531);
#460=CARTESIAN_POINT('',(-27.8464101615137,1.89683609183254E-014,55.0));
#461=VECTOR('',#532,10.0);
#462=CARTESIAN_POINT('',(-27.5,1.65944166779483E-014,54.4));
#463=VECTOR('',#533,10.0);
#464=DIRECTION('',(-5.48707263966375E-016,6.09939603923743E-016,-1.0));
#465=CARTESIAN_POINT('',(3.02029790880834E-014,-3.2829062729761E-014,54.4));
#466=DIRECTION('',(5.48707263966375E-016,-6.09939603923743E-016,1.0));
#467=DIRECTION('',(-1.0,1.81807802661497E-015,5.48707263966376E-016));
#468=DIRECTION('',(-1.043526661392E-015,6.39892077907576E-016,-1.0));
#469=CARTESIAN_POINT('',(6.82528286692465E-016,-1.08816587911968E-015,0.600000000000006));
#470=DIRECTION('',(5.48707263966375E-016,-6.09939603923743E-016,1.0));
#471=DIRECTION('',(-1.0,1.81807802661497E-015,5.48707263966376E-016));
#472=DIRECTION('',(-0.499999999999999,1.49849454503703E-015,-0.866025403784439));
#473=CARTESIAN_POINT('',(3.05322034464632E-014,-3.31582870881408E-014,55.0));
#474=DIRECTION('',(5.48707263966375E-016,-6.09939603923743E-016,1.0));
#475=DIRECTION('',(-1.0,1.81807802661497E-015,5.48707263966376E-016));
#476=DIRECTION('',(0.499923847578194,-0.00872620321864224,-0.86602540378444));
#477=DIRECTION('',(0.342020143325671,-9.05489496846581E-017,-0.939692620785907));
#478=CARTESIAN_POINT('',(3.05322034464632E-014,-3.31582870881408E-014,55.0));
#479=DIRECTION('',(5.48707263966375E-016,-6.09939603923743E-016,1.0));
#480=DIRECTION('',(-1.0,1.81807802661497E-015,5.48707263966376E-016));
#481=DIRECTION('',(0.342020143325673,-1.16505137510681E-015,0.939692620785907));
#482=CARTESIAN_POINT('',(2.95445303713237E-014,-3.21706140130013E-014,53.2));
#483=DIRECTION('',(5.48707263966375E-016,-6.09939603923743E-016,1.0));
#484=DIRECTION('',(-1.0,1.81807802661497E-015,5.48707263966376E-016));
#485=DIRECTION('',(-5.48707263966375E-016,6.09939603923743E-016,-1.0));
#486=DIRECTION('',(5.48707263966375E-016,-6.35105942925532E-016,1.0));
#487=CARTESIAN_POINT('',(1.34097700345212E-015,-1.74661459587933E-015,1.80000000000001));
#488=DIRECTION('',(5.48707263966375E-016,-6.09939603923743E-016,1.0));
#489=DIRECTION('',(-1.0,1.81807802661497E-015,5.48707263966376E-016));
#490=DIRECTION('',(-0.342020143325661,1.23686043954908E-015,-0.939692620785911));
#491=DIRECTION('',(-0.34202014332566,1.33819041265129E-016,0.939692620785912));
#492=CARTESIAN_POINT('',(3.53303928312638E-016,-7.58941520739854E-016,1.40055521273414E-015));
#493=DIRECTION('',(5.48707263966375E-016,-6.09939603923743E-016,1.0));
#494=DIRECTION('',(-1.0,1.81807802661497E-015,5.48707263966376E-016));
#495=DIRECTION('',(0.500000000000002,-4.4204816149268E-016,-0.866025403784437));
#496=DIRECTION('',(-0.499923847578199,0.00872620321864326,-0.866025403784437));
#497=CARTESIAN_POINT('',(3.53303928312638E-016,-7.58941520739854E-016,1.40055521273414E-015));
#498=DIRECTION('',(5.48707263966375E-016,-6.09939603923743E-016,1.0));
#499=DIRECTION('',(-1.0,1.81807802661497E-015,5.48707263966376E-016));
#500=CARTESIAN_POINT('',(3.53303928312638E-016,-7.58941520739854E-016,1.40055521273414E-015));
#501=DIRECTION('',(5.48707263966375E-016,-6.09939603923743E-016,1.0));
#502=DIRECTION('',(-1.0,1.81807802661497E-015,5.48707263966376E-016));
#503=DIRECTION('',(-0.500000000000003,1.42460518949343E-015,-0.866025403784437));
#504=CARTESIAN_POINT('',(6.82528286692465E-016,-1.08816587911968E-015,0.600000000000006));
#505=DIRECTION('',(5.48707263966375E-016,-6.09939603923743E-016,1.0));
#506=DIRECTION('',(-1.0,1.81807802661497E-015,5.48707263966376E-016));
#507=DIRECTION('',(-0.999847695156391,0.0174524064372855,-1.54368327206492E-016));
#508=CARTESIAN_POINT('',(3.53303928312638E-016,-7.58941520739854E-016,1.40055521273414E-015));
#509=DIRECTION('',(5.48707263966375E-016,-6.09939603923743E-016,1.0));
#510=DIRECTION('',(-1.0,1.81807802661497E-015,5.48707263966376E-016));
#511=DIRECTION('',(-1.0,1.89882151931499E-015,-1.6492967030234E-016));
#512=DIRECTION('',(-0.341968052001219,0.00596907455105754,0.939692620785912));
#513=CARTESIAN_POINT('',(1.34097700345212E-015,-1.74661459587933E-015,1.80000000000001));
#514=DIRECTION('',(5.48707263966375E-016,-6.09939603923743E-016,1.0));
#515=DIRECTION('',(-1.0,1.81807802661497E-015,5.48707263966376E-016));
#516=DIRECTION('',(5.48268050789577E-016,-6.35102109970206E-016,1.0));
#517=CARTESIAN_POINT('',(2.95445303713237E-014,-3.21706140130013E-014,53.2));
#518=DIRECTION('',(5.48707263966375E-016,-6.09939603923743E-016,1.0));
#519=DIRECTION('',(-1.0,1.81807802661497E-015,5.48707263966376E-016));
#520=DIRECTION('',(0.341968052001232,-0.00596907455105878,0.939692620785907));
#521=CARTESIAN_POINT('',(3.05322034464632E-014,-3.31582870881408E-014,55.0));
#522=DIRECTION('',(5.48707263966375E-016,-6.09939603923743E-016,1.0));
#523=DIRECTION('',(-1.0,1.81807802661497E-015,5.48707263966376E-016));
#524=DIRECTION('',(0.999847695156391,-0.0174524064372855,-5.59268607062224E-016));
#525=CARTESIAN_POINT('',(3.05322034464632E-014,-3.31582870881408E-014,55.0));
#526=DIRECTION('',(5.48707263966375E-016,-6.09939603923743E-016,1.0));
#527=DIRECTION('',(-1.0,1.81807802661497E-015,5.48707263966376E-016));
#528=DIRECTION('',(1.0,-1.89882151931499E-015,-5.48707263966376E-016));
#529=CARTESIAN_POINT('',(3.02029790880834E-014,-3.2829062729761E-014,54.4));
#530=DIRECTION('',(5.48707263966375E-016,-6.09939603923743E-016,1.0));
#531=DIRECTION('',(-1.0,1.81807802661497E-015,5.48707263966376E-016));
#532=DIRECTION('',(0.499999999999998,-4.74216329821555E-016,-0.86602540378444));
#533=DIRECTION('',(-1.04397404075083E-015,6.31251726763786E-016,-1.0));
ENDSEC;
END-ISO-10303-21;
